  0
SECTION
  2
HEADER
  9
$ACADVER
  1
AC1009
  9
$INSBASE
 10
0
 20
0
  9
$EXTMIN
 10
105.538366496139
 20
622.833045600859
  9
$EXTMAX
 10
578.789201839971
 20
762.855845200339
  9
$LIMMIN
 10
105.538366496139
 20
622.833045600859
  9
$LIMMAX
 10
578.789201839971
 20
762.855845200339
  9
$VIEWCTR
 10
10
 20
10
  9
$VIEWSIZE
 40
10
  9
$SNAPMODE
 70
0
  9
$SNAPUNIT
 10
1
 20
1
  9
$SNAPBASE
 10
0
 20
0
  9
$SNAPANG
 50
0
  9
$SNAPSTYLE
 70
0
  9
$SNAPISOPAIR
 70
0
  9
$GRIDMODE
 70
0
  9
$GRIDUNIT
 10
0
 20
0
  9
$ORTHOMODE
 70
0
  9
$REGENMODE
 70
1
  9
$FILLMODE
 70
1
  9
$QTEXTMODE
 70
0
  9
$DRAGMODE
 70
2
  9
$LTSCALE
 40
1
  9
$OSMODE
 70
0
  9
$ATTMODE
 70
1
  9
$TEXTSIZE
 40
3.5
  9
$TRACEWID
 40
0.5
  9
$TEXTSTYLE
  7
STANDARD
  9
$CLAYER
  8
0
  9
$CELTYPE
  6
BYLAYER
  9
$CECOLOR
 62
256
  9
$DIMSCALE
 40
1
  9
$DIMASZ
 40
0.18
  9
$DIMEXO
 40
0.0625
  9
$DIMDLI
 40
0.38
  9
$DIMRND
 40
0
  9
$DIMDLE
 40
0
  9
$DIMEXE
 40
0.18
  9
$DIMTP
 40
0
  9
$DIMTM
 40
0
  9
$DIMTXT
 40
0.18
  9
$DIMCEN
 40
0.09
  9
$DIMTSZ
 40
0
  9
$DIMTOL
 70
0
  9
$DIMLIM
 70
0
  9
$DIMTIH
 70
1
  9
$DIMTOH
 70
1
  9
$DIMSE1
 70
0
  9
$DIMSE2
 70
0
  9
$DIMTAD
 70
0
  9
$DIMZIN
 70
0
  9
$DIMBLK
  1

  9
$DIMASO
 70
1
  9
$DIMSHO
 70
1
  9
$DIMPOST
  1

  9
$DIMAPOST
  1

  9
$DIMALT
 70
0
  9
$DIMALTD
 70
2
  9
$DIMALTF
 40
25.4
  9
$DIMLFAC
 40
1
  9
$DIMTOFL
 70
0
  9
$DIMTVP
 40
0
  9
$DIMTIX
 70
0
  9
$DIMSOXD
 70
0
  9
$DIMSAH
 70
0
  9
$DIMBLK1
  1

  9
$DIMBLK2
  1

  9
$DIMSTYLE
  2
*UNNAMED
  9
$DIMCLRD
 70
0
  9
$DIMCLRE
 70
0
  9
$DIMCLRT
 70
0
  9
$DIMTFAC
 40
1
  9
$DIMGAP
 40
0.09
  9
$LUNITS
 70
2
  9
$LUPREC
 70
4
  9
$AXISMODE
 70
0
  9
$AXISUNIT
 10
0
 20
0
  9
$SKETCHINC
 40
0.1
  9
$FILLETRAD
 40
2
  9
$AUNITS
 70
0
  9
$AUPREC
 70
0
  9
$MENU
  1
ACAD
  9
$ELEVATION
 40
0
  9
$THICKNESS
 40
0
  9
$VIEWDIR
 10
0
 20
0
 30
1
  9
$LIMCHECK
 70
0
  9
$BLIPMODE
 70
1
  9
$CHAMFERA
 40
0
  9
$CHAMFERB
 40
0
  9
$FASTZOOM
 70
1
  9
$SKPOLY
 70
0
  9
$ANGBASE
 50
0
  9
$ANGDIR
 70
0
  9
$PDMODE
 70
0
  9
$PDSIZE
 40
0
  9
$PLINEWID
 40
0
  9
$COORDS
 70
2
  0
ENDSEC
  0
SECTION
  2
TABLES
  0
TABLE
  2
DIMSTYLE
 70
0
  0
ENDTAB
  0
TABLE
  2
LTYPE
 70
9
  0
LTYPE
  2
CONTINUOUS
 70
64
  3
Solid line
 72
65
 73
0
 40
0
  0
LTYPE
  2
BORDER
 70
64
  3
__ __ . __ __ .
 72
65
 73
6
 40
21.79444636451858
 49
6.226984675576738
 49
-3.113492337788369
 49
6.226984675576738
 49
-3.113492337788369
 49
0
 49
-3.113492337788369
  0
LTYPE
  2
CENTER
 70
64
  3
____ _ ____ _
 72
65
 73
4
 40
24.90793870230695
 49
15.56746168894184
 49
-3.113492337788369
 49
3.113492337788369
 49
-3.113492337788369
  0
LTYPE
  2
DASHDOT
 70
64
  3
__ . __ . __ .
 72
65
 73
4
 40
12.45396935115348
 49
6.226984675576738
 49
-3.113492337788369
 49
0
 49
-3.113492337788369
  0
LTYPE
  2
DASHED
 70
64
  3
__ __ __ __ __
 72
65
 73
2
 40
9.340477013365106
 49
6.226984675576738
 49
-3.113492337788369
  0
LTYPE
  2
DIVIDE
 70
64
  3
__ . . __ . . 
 72
65
 73
6
 40
15.56746168894184
 49
6.226984675576738
 49
-3.113492337788369
 49
0
 49
-3.113492337788369
 49
0
 49
-3.113492337788369
  0
LTYPE
  2
DOT
 70
64
  3
..............
 72
65
 73
4
 40
6.226984675576738
 49
0
 49
-3.113492337788369
 49
0
 49
-3.113492337788369
  0
LTYPE
  2
HIDDEN
 70
64
  3
_ _ _ _ _ _ _
 72
65
 73
2
 40
4.670238506682553
 49
3.113492337788369
 49
-1.556746168894184
  0
LTYPE
  2
PHANTOM
 70
64
  3
_____ _ _ _____ _ _ 
 72
65
 73
6
 40
31.13492337788369
 49
15.56746168894184
 49
-3.113492337788369
 49
3.113492337788369
 49
-3.113492337788369
 49
3.113492337788369
 49
-3.113492337788369
  0
ENDTAB
  0
TABLE
  2
LAYER
 70
3
  0
LAYER
  2
1
 70
0
 62
7
  6
CONTINUOUS
  0
LAYER
  2
0
 70
0
 62
7
  6
CONTINUOUS
  0
ENDTAB
  0
TABLE
  2
STYLE
 70
4
  0
STYLE
  2
STANDARD
 70
0
 40
0
 41
1
 50
0
 71
0
 42
3.5
  3
txt
  4

  0
STYLE
  2
SIMPLEX
 70
0
 40
0
 41
1
 50
0
 71
0
 42
3.5
  3
simplex
  4

  0
STYLE
  2
COMPLEX
 70
0
 40
0
 41
1
 50
0
 71
0
 42
3.5
  3
complex
  4

  0
STYLE
  2
ITALIC
 70
0
 40
0
 41
1
 50
0
 71
0
 42
3.5
  3
italic
  4

  0
ENDTAB
  0
TABLE
  2
VIEW
 70
0
  0
ENDTAB
  0
ENDSEC
  0
SECTION
  2
BLOCKS
  0
ENDSEC
  0
SECTION
  2
ENTITIES
  0
LINE
  8
1
 62
3
  6
CENTER
 10
528.7892018399712
 20
665.0800175306206
 30
0
 11
528.7892018399712
 21
686.6800175306205
 31
0
  0
LINE
  8
1
 62
3
  6
CENTER
 10
517.9892018399712
 20
675.8800175306205
 30
0
 11
539.5892018399712
 21
675.8800175306205
 31
0
  0
LINE
  8
1
 62
3
  6
CENTER
 10
348.789201839971
 20
665.0800175306206
 30
0
 11
348.789201839971
 21
686.6800175306205
 31
0
  0
LINE
  8
1
 62
3
  6
CENTER
 10
337.989201839971
 20
675.8800175306205
 30
0
 11
359.5892018399708
 21
675.8800175306205
 31
0
  0
LINE
  8
1
 62
3
  6
CENTER
 10
248.789201839971
 20
665.0800175306206
 30
0
 11
248.789201839971
 21
686.6800175306205
 31
0
  0
LINE
  8
1
 62
3
  6
CENTER
 10
237.989201839971
 20
675.8800175306205
 30
0
 11
259.5892018399708
 21
675.8800175306205
 31
0
  0
LINE
  8
1
 62
7
 10
198.7892018399708
 20
692.8632296739636
 30
0
 11
498.753246528536
 21
692.863229673965
 31
0
  0
LINE
  8
1
 62
7
 10
578.789201839971
 20
665.8800175306205
 30
0
 11
502.9012122318741
 21
665.8800175306205
 31
0
  0
LINE
  8
1
 62
7
 10
111.7472157864664
 20
693.7800175306206
 30
0
 11
112.0432006600736
 21
694.0760024042278
 31
0
  0
LINE
  8
1
 62
7
 10
110.2694449845096
 20
693.7800175306206
 30
0
 11
111.7472157864664
 21
693.7800175306206
 31
0
  0
LINE
  8
1
 62
7
 10
138.6950829832176
 20
693.7800175306206
 30
0
 11
140.1729083901656
 21
693.7800175306206
 31
0
  0
LINE
  8
1
 62
7
 10
129.8491493848421
 20
693.7800175306206
 30
0
 11
130.1451342584491
 21
694.0760024042277
 31
0
  0
LINE
  8
1
 62
7
 10
132.272809063239
 20
717.8800175306205
 30
0
 11
134.0600107666108
 21
716.0928125107648
 31
0
  0
LINE
  8
1
 62
7
 10
118.1695462568026
 20
717.8800175306205
 30
0
 11
132.272809063239
 21
717.8800175306205
 31
0
  0
LINE
  8
1
 62
7
 10
116.38231462001
 20
716.092785893828
 30
0
 11
118.1695462568026
 21
717.8800175306205
 31
0
  0
LINE
  8
1
 62
7
 10
111.0083030829924
 20
710.7187743568104
 30
0
 11
111.3747377709351
 21
710.3523396688677
 31
0
  0
LINE
  8
1
 62
7
 10
110.2694449845096
 20
693.7800175306206
 30
0
 11
109.221149384842
 21
694.8283150755954
 31
0
  0
LINE
  8
1
 62
7
 10
140.1729083901656
 20
693.7800175306206
 30
0
 11
141.221149384842
 21
694.8282585252971
 31
0
  0
LINE
  8
1
 62
7
 10
109.221149384842
 20
708.9316206586598
 30
0
 11
111.0083030829924
 21
710.7187743568104
 31
0
  0
LINE
  8
1
 62
7
 10
109.221149384842
 20
708.9316206586598
 30
0
 11
109.221149384842
 21
694.8283150755954
 31
0
  0
LINE
  8
1
 62
7
 10
120.593149384842
 20
693.7800175306206
 30
0
 11
129.8491493848421
 21
693.7800175306206
 31
0
  0
LINE
  8
1
 62
3
  6
CENTER
 10
144.421149384842
 20
675.8800175306205
 30
0
 11
106.021149384842
 21
675.8800175306205
 31
0
  0
LINE
  8
1
 62
7
 10
140.221149384842
 20
665.8800175306205
 30
0
 11
141.221149384842
 21
666.8800175306205
 31
0
  0
LINE
  8
1
 62
7
 10
109.221149384842
 20
666.8800175306205
 30
0
 11
110.221149384842
 21
665.8800175306205
 31
0
  0
LINE
  8
1
 62
7
 10
141.221149384842
 20
691.8800175306205
 30
0
 11
140.221149384842
 21
692.8800175306205
 31
0
  0
LINE
  8
1
 62
7
 10
109.221149384842
 20
691.8800175306205
 30
0
 11
110.221149384842
 21
692.8800175306205
 31
0
  0
LINE
  8
1
 62
7
 10
110.221149384842
 20
665.8800175306205
 30
0
 11
140.221149384842
 21
665.8800175306205
 31
0
  0
LINE
  8
1
 62
7
 10
137.3680036343345
 20
692.8800175306205
 30
0
 11
140.221149384842
 21
692.8800175306205
 31
0
  0
LINE
  8
1
 62
7
 10
133.041149384842
 20
688.5531632811283
 30
0
 11
137.3680036343345
 21
692.8800175306205
 31
0
  0
LINE
  8
1
 62
7
 10
128.7142951353496
 20
692.8800175306205
 30
0
 11
133.041149384842
 21
688.5531632811283
 31
0
  0
LINE
  8
1
 62
7
 10
121.6680036343344
 20
692.8800175306205
 30
0
 11
128.7142951353496
 21
692.8800175306205
 31
0
  0
LINE
  8
1
 62
7
 10
117.3411493848419
 20
688.5531632811283
 30
0
 11
121.6680036343344
 21
692.8800175306205
 31
0
  0
LINE
  8
1
 62
7
 10
113.0142951353496
 20
692.8800175306205
 30
0
 11
110.221149384842
 21
692.8800175306205
 31
0
  0
LINE
  8
1
 62
7
 10
221.508924946496
 20
717.9831149368552
 30
0
 11
221.508924946496
 21
693.7800175306206
 31
0
  0
LINE
  8
1
 62
7
 10
221.508924946496
 20
693.7800175306206
 30
0
 11
420.508924946496
 21
693.7800175306206
 31
0
  0
LINE
  8
1
 62
7
 10
227.508924946496
 20
717.9831149368552
 30
0
 11
227.508924946496
 21
693.7800175306206
 31
0
  0
LINE
  8
1
 62
7
 10
221.508924946496
 20
717.9831149368552
 30
0
 11
420.508924946496
 21
717.9831149368552
 31
0
  0
LINE
  8
1
 62
7
 10
227.508924946496
 20
713.3806859265199
 30
0
 11
245.508924946496
 21
713.3806859265199
 31
0
  0
LINE
  8
1
 62
7
 10
245.508924946496
 20
717.9831149368552
 30
0
 11
245.508924946496
 21
692.8632296739636
 31
0
  0
LINE
  8
1
 62
7
 10
396.5089249464958
 20
717.9831149368552
 30
0
 11
396.5089249464958
 21
692.8632296739636
 31
0
  0
LINE
  8
1
 62
7
 10
420.508924946496
 20
693.7800175306206
 30
0
 11
420.508924946496
 21
717.9831149368552
 31
0
  0
LINE
  8
1
 62
7
 10
396.5089249464958
 20
713.3806859265199
 30
0
 11
414.508924946496
 21
713.3806859265199
 31
0
  0
LINE
  8
1
 62
7
 10
414.508924946496
 20
693.7800175306206
 30
0
 11
414.508924946496
 21
717.9831149368552
 31
0
  0
LINE
  8
1
 62
3
  6
CENTER
 10
261.008924946496
 20
710.1735071886239
 30
0
 11
261.008924946496
 21
698.0600323965066
 31
0
  0
LINE
  8
1
 62
3
  6
CENTER
 10
255.2818768965319
 20
703.9831149368552
 30
0
 11
267.9535763334471
 21
703.9831149368552
 31
0
  0
LINE
  8
1
 62
3
  6
CENTER
 10
285.5376526445851
 20
703.9831149368552
 30
0
 11
296.925435398465
 21
703.9831149368552
 31
0
  0
LINE
  8
1
 62
3
  6
CENTER
 10
291.0089249464958
 20
709.4478151503865
 30
0
 11
291.0089249464958
 21
697.948387467547
 31
0
  0
LINE
  8
1
 62
3
  6
CENTER
 10
315.1235588188805
 20
703.9831149368552
 30
0
 11
327.0137437530785
 21
703.9831149368552
 31
0
  0
LINE
  8
1
 62
3
  6
CENTER
 10
321.0089249464958
 20
709.615282543826
 30
0
 11
321.0089249464958
 21
698.2833222544259
 31
0
  0
LINE
  8
1
 62
3
  6
CENTER
 10
374.9123927742286
 20
703.9831149368552
 30
0
 11
387.1933349597851
 21
703.9831149368552
 31
0
  0
LINE
  8
1
 62
3
  6
CENTER
 10
381.008924946496
 20
710.0060397951845
 30
0
 11
381.008924946496
 21
698.0042099320269
 31
0
  0
LINE
  8
1
 62
7
 10
141.221149384842
 20
691.8800175306205
 30
0
 11
141.221149384842
 21
666.8800175306205
 31
0
  0
LINE
  8
1
 62
7
 10
109.221149384842
 20
691.8800175306205
 30
0
 11
109.221149384842
 21
666.8800175306205
 31
0
  0
LINE
  8
1
 62
3
  6
CENTER
 10
351.0089249464958
 20
710.0060397951845
 30
0
 11
351.0089249464958
 21
698.0042099320269
 31
0
  0
LINE
  8
1
 62
3
  6
CENTER
 10
344.9123927742284
 20
703.9831149368552
 30
0
 11
357.1933349597851
 21
703.9831149368552
 31
0
  0
LINE
  8
1
 62
7
 10
198.7892018399708
 20
692.8632296739636
 30
0
 11
198.789201839971
 21
665.8800175306205
 31
0
  0
LINE
  8
1
 62
7
 10
578.7892018399708
 20
692.8632296739654
 30
0
 11
578.789201839971
 21
665.8800175306205
 31
0
  0
LINE
  8
1
 62
7
 10
113.0142951353496
 20
692.8800175306205
 30
0
 11
117.3411493848419
 21
688.5531632811283
 31
0
  0
LINE
  8
1
 62
7
 10
141.221149384842
 20
708.9316606037132
 30
0
 11
141.221149384842
 21
694.8282585252971
 31
0
  0
LINE
  8
1
 62
7
 10
139.4340173173958
 20
710.7187959875143
 30
0
 11
141.221149384842
 21
708.9316606037132
 31
0
  0
LINE
  8
1
 62
7
 10
134.059984149674
 20
716.092785893828
 30
0
 11
133.6935494617313
 21
715.7263512058853
 31
0
  0
LINE
  8
1
 62
7
 10
140.7067878928274
 20
696.268033425906
 30
0
 11
140.7067878928274
 21
708.7131127747892
 31
0
  0
LINE
  8
1
 62
7
 10
132.0800851623515
 20
717.3398155052651
 30
0
 11
118.3622136073325
 21
717.3398155052652
 31
0
  0
LINE
  8
1
 62
7
 10
118.3622136073325
 20
717.3398155052652
 30
0
 11
109.7355108768566
 21
708.7131127747892
 31
0
  0
LINE
  8
1
 62
7
 10
109.7355108768566
 20
708.7131127747892
 30
0
 11
109.7355108768566
 21
696.2680334259061
 31
0
  0
LINE
  8
1
 62
7
 10
111.9275418985349
 20
694.0760024042278
 30
0
 11
109.7355108768566
 21
696.2680334259061
 31
0
  0
LINE
  8
1
 62
7
 10
118.3622136073325
 20
717.3398155052652
 30
0
 11
121.3428462451694
 21
714.3591828674281
 31
0
  0
LINE
  8
1
 62
7
 10
126.2003147216496
 20
709.5017143909479
 30
0
 11
128.4738405783001
 21
707.2281885342975
 31
0
  0
LINE
  8
1
 62
7
 10
137.7261552549904
 20
697.9758738576071
 30
0
 11
140.0703917897594
 21
695.6316373228381
 31
0
  0
LINE
  8
1
 62
7
 10
138.5147568711491
 20
694.0760024042277
 30
0
 11
140.7067878928274
 21
696.268033425906
 31
0
  0
LINE
  8
1
 62
7
 10
109.7355108768566
 20
708.7131127747892
 30
0
 11
112.7161435146935
 21
705.7324801369523
 31
0
  0
LINE
  8
1
 62
7
 10
117.5736119911739
 20
700.875011660472
 30
0
 11
124.3726212474181
 21
694.0760024042277
 31
0
  0
LINE
  8
1
 62
7
 10
111.9275418985349
 20
694.0760024042278
 30
0
 11
138.5147568711491
 21
694.0760024042277
 31
0
  0
LINE
  8
1
 62
7
 10
135.3327763558096
 20
714.087124311807
 30
0
 11
128.4738405783001
 21
707.2281885342975
 31
0
  0
LINE
  8
1
 62
7
 10
132.0800851623515
 20
717.3398155052651
 30
0
 11
140.7067878928274
 21
708.7131127747892
 31
0
  0
LINE
  8
1
 62
7
 10
137.4540966993692
 20
711.9658039682473
 30
0
 11
130.5951609218597
 21
705.1068681907378
 31
0
  0
LINE
  8
1
 62
7
 10
130.5951609218597
 20
705.1068681907378
 30
0
 11
132.8686867785101
 21
702.8333423340874
 31
0
  0
LINE
  8
1
 62
7
 10
125.221149384842
 20
715.1120683381894
 30
0
 11
123.721149384842
 21
714.2460429344048
 31
0
  0
LINE
  8
1
 62
7
 10
123.721149384842
 20
714.2460429344048
 30
0
 11
123.721149384842
 21
712.513992126836
 31
0
  0
LINE
  8
1
 62
7
 10
123.721149384842
 20
712.513992126836
 30
0
 11
125.221149384842
 21
711.6479667230515
 31
0
  0
LINE
  8
1
 62
7
 10
125.221149384842
 20
711.6479667230515
 30
0
 11
126.721149384842
 21
712.513992126836
 31
0
  0
LINE
  8
1
 62
7
 10
126.721149384842
 20
712.513992126836
 30
0
 11
126.721149384842
 21
714.2460429344048
 31
0
  0
LINE
  8
1
 62
7
 10
126.721149384842
 20
714.2460429344048
 30
0
 11
125.221149384842
 21
715.1120683381894
 31
0
  0
LINE
  8
1
 62
7
 10
136.7469899181827
 20
703.5862278048486
 30
0
 11
135.2469899181827
 21
702.7202024010641
 31
0
  0
LINE
  8
1
 62
7
 10
135.2469899181827
 20
702.7202024010641
 30
0
 11
135.2469899181827
 21
700.9881515934952
 31
0
  0
LINE
  8
1
 62
7
 10
135.2469899181827
 20
700.9881515934952
 30
0
 11
136.7469899181827
 21
700.1221261897107
 31
0
  0
LINE
  8
1
 62
7
 10
136.7469899181827
 20
700.1221261897107
 30
0
 11
138.2469899181827
 21
700.9881515934952
 31
0
  0
LINE
  8
1
 62
7
 10
138.2469899181827
 20
700.9881515934952
 30
0
 11
138.2469899181827
 21
702.7202024010641
 31
0
  0
LINE
  8
1
 62
7
 10
138.2469899181827
 20
702.7202024010641
 30
0
 11
136.7469899181827
 21
703.5862278048486
 31
0
  0
LINE
  8
1
 62
7
 10
113.6953088515013
 20
703.5862278048486
 30
0
 11
112.1953088515013
 21
702.7202024010641
 31
0
  0
LINE
  8
1
 62
7
 10
112.1953088515013
 20
702.7202024010641
 30
0
 11
112.1953088515013
 21
700.9881515934952
 31
0
  0
LINE
  8
1
 62
7
 10
112.1953088515013
 20
700.9881515934952
 30
0
 11
113.6953088515013
 21
700.1221261897107
 31
0
  0
LINE
  8
1
 62
7
 10
113.6953088515013
 20
700.1221261897107
 30
0
 11
115.1953088515013
 21
700.9881515934952
 31
0
  0
LINE
  8
1
 62
7
 10
115.1953088515013
 20
700.9881515934952
 30
0
 11
115.1953088515013
 21
702.7202024010641
 31
0
  0
LINE
  8
1
 62
7
 10
115.1953088515013
 20
702.7202024010641
 30
0
 11
113.6953088515013
 21
703.5862278048486
 31
0
  0
LINE
  8
1
 62
7
 10
116.7487493079527
 20
715.7263512058854
 30
0
 11
116.38231462001
 21
716.092785893828
 31
0
  0
LINE
  8
1
 62
7
 10
139.0675609987491
 20
710.3523396688676
 30
0
 11
139.4340173173958
 21
710.7187959875143
 31
0
  0
LINE
  8
1
 62
7
 10
120.2971645112349
 20
694.0760024042278
 30
0
 11
120.593149384842
 21
693.7800175306206
 31
0
  0
LINE
  8
1
 62
7
 10
138.3990981096106
 20
694.0760024042277
 30
0
 11
138.6950829832176
 21
693.7800175306206
 31
0
  0
LINE
  8
1
 62
3
  6
DIVIDE
 10
499.9216748855689
 20
699.4897161727315
 30
0
 11
492.660823731645
 21
658.3113830285324
 31
0
  0
LINE
  8
1
 62
3
  6
DIVIDE
 10
508.8275089159589
 20
699.4897161727315
 30
0
 11
501.566657762035
 21
658.3113830285324
 31
0
  0
LINE
  8
1
 62
7
 10
507.659080558926
 20
692.863229673965
 30
0
 11
578.7892018399708
 21
692.8632296739654
 31
0
  0
LINE
  8
1
 62
7
 10
493.9953782014841
 20
665.8800175306205
 30
0
 11
198.789201839971
 21
665.8800175306205
 31
0
  0
LINE
  8
1
 62
3
  6
CENTER
 10
448.789201839971
 20
665.0800175306206
 30
0
 11
448.789201839971
 21
686.6800175306205
 31
0
  0
LINE
  8
1
 62
3
  6
CENTER
 10
437.989201839971
 20
675.8800175306205
 30
0
 11
459.5892018399708
 21
675.8800175306205
 31
0
  0
LINE
  8
1
 62
3
  6
PHANTOM
 10
125.221149384842
 20
718.925612698822
 30
0
 11
125.221149384842
 21
708.500324019724
 31
0
  0
LINE
  8
1
 62
3
  6
PHANTOM
 10
113.6953088515013
 20
706.665160844003
 30
0
 11
113.6953088515013
 21
697.176976765273
 31
0
  0
LINE
  8
1
 62
3
  6
PHANTOM
 10
136.7469899181827
 20
706.313746618864
 30
0
 11
136.7469899181827
 21
696.981746640196
 31
0
  0
LINE
  8
1
 62
3
  6
PHANTOM
 10
141.915864479537
 20
701.8541769972796
 30
0
 11
130.982977475239
 21
701.8541769972796
 31
0
  0
LINE
  8
1
 62
3
  6
PHANTOM
 10
118.80061767045
 20
701.8541769972796
 30
0
 11
108.336282966337
 21
701.8541769972796
 31
0
  0
LINE
  8
1
 62
3
  6
PHANTOM
 10
120.40150469608
 20
713.3800175306204
 30
0
 11
129.772550699763
 21
713.3800175306204
 31
0
  0
LINE
  8
1
 62
3
  6
CENTER
 10
105.538366496139
 20
703.8800175306205
 30
0
 11
144.421149384842
 21
703.8800175306205
 31
0
  0
CIRCLE
  8
1
 62
3
 10
261.0089249464958
 20
703.9831149368552
 30
0
 40
4
  0
CIRCLE
  8
1
 62
7
 10
261.0089249464958
 20
703.9831149368552
 30
0
 40
3
  0
CIRCLE
  8
1
 62
3
 10
291.0089249464958
 20
703.9831149368552
 30
0
 40
4
  0
CIRCLE
  8
1
 62
7
 10
291.0089249464958
 20
703.9831149368552
 30
0
 40
3
  0
CIRCLE
  8
1
 62
3
 10
321.0089249464958
 20
703.9831149368552
 30
0
 40
4
  0
CIRCLE
  8
1
 62
7
 10
321.0089249464958
 20
703.9831149368552
 30
0
 40
3
  0
CIRCLE
  8
1
 62
3
 10
381.008924946496
 20
703.9831149368552
 30
0
 40
4
  0
CIRCLE
  8
1
 62
7
 10
381.008924946496
 20
703.9831149368552
 30
0
 40
3
  0
CIRCLE
  8
1
 62
7
 10
351.008924946496
 20
703.9831149368552
 30
0
 40
3
  0
CIRCLE
  8
1
 62
3
 10
351.008924946496
 20
703.9831149368552
 30
0
 40
4
  0
ARC
  8
1
 62
7
 10
125.221149384842
 20
713.3800175306204
 30
0
 40
4.000000000000002
 50
165.8304974317887
 51
284.1695025682105
  0
ARC
  8
1
 62
7
 10
136.7469899181827
 20
701.8541769972798
 30
0
 40
4.000000000000002
 50
165.8304974317887
 51
284.1695025682115
  0
ARC
  8
1
 62
7
 10
113.6953088515013
 20
701.8541769972798
 30
0
 40
4.000000000000044
 50
345.8304974317871
 51
104.1695025682131
  0
CIRCLE
  8
1
 62
7
 10
528.7892018399712
 20
675.8800175306205
 30
0
 40
4.25
  0
CIRCLE
  8
1
 62
7
 10
528.7892018399712
 20
675.8800175306205
 30
0
 40
6.75
  0
CIRCLE
  8
1
 62
7
 10
348.789201839971
 20
675.8800175306205
 30
0
 40
4.25
  0
CIRCLE
  8
1
 62
7
 10
348.789201839971
 20
675.8800175306205
 30
0
 40
6.75
  0
CIRCLE
  8
1
 62
7
 10
248.789201839971
 20
675.8800175306205
 30
0
 40
4.25
  0
CIRCLE
  8
1
 62
7
 10
248.789201839971
 20
675.8800175306205
 30
0
 40
6.75
  0
CIRCLE
  8
1
 62
7
 10
125.221149384842
 20
713.3800175306204
 30
0
 40
3.499999999999968
  0
CIRCLE
  8
1
 62
7
 10
136.7469899181827
 20
701.8541769972798
 30
0
 40
3.500000000000129
  0
CIRCLE
  8
1
 62
7
 10
113.6953088515013
 20
701.8541769972798
 30
0
 40
3.499999999999968
  0
CIRCLE
  8
1
 62
7
 10
448.789201839971
 20
675.8800175306205
 30
0
 40
4.25
  0
CIRCLE
  8
1
 62
7
 10
448.789201839971
 20
675.8800175306205
 30
0
 40
6.75
  0
TEXT
  8
1
 62
2
 10
444.510044342793
 20
622.833045600859
 30
0
 40
6
  1
UNION TOOL CO.
 41
0.9
  7
COMPLEX
  0
TEXT
  8
1
 62
2
 10
108.628933935477
 20
756.855845200339
 30
0
 40
6
  1
MODEL : TGH6M
 41
0.9
  7
COMPLEX
  0
ENDSEC
  0
EOF
