  0
SECTION
  2
HEADER
  9
$ACADVER
  1
AC1009
  9
$INSBASE
 10
0
 20
0
  9
$EXTMIN
 10
-205.6260635781674
 20
496.5462598067671
  9
$EXTMAX
 10
62.54688895222779
 20
581.364718761894
  9
$LIMMIN
 10
-205.6260635781674
 20
496.5462598067671
  9
$LIMMAX
 10
62.54688895222779
 20
581.364718761894
  9
$VIEWCTR
 10
10
 20
10
  9
$VIEWSIZE
 40
10
  9
$SNAPMODE
 70
0
  9
$SNAPUNIT
 10
1
 20
1
  9
$SNAPBASE
 10
0
 20
0
  9
$SNAPANG
 50
0
  9
$SNAPSTYLE
 70
0
  9
$SNAPISOPAIR
 70
0
  9
$GRIDMODE
 70
0
  9
$GRIDUNIT
 10
0
 20
0
  9
$ORTHOMODE
 70
0
  9
$REGENMODE
 70
1
  9
$FILLMODE
 70
1
  9
$QTEXTMODE
 70
0
  9
$DRAGMODE
 70
2
  9
$LTSCALE
 40
1
  9
$OSMODE
 70
0
  9
$ATTMODE
 70
1
  9
$TEXTSIZE
 40
3.5
  9
$TRACEWID
 40
0.5
  9
$TEXTSTYLE
  7
STANDARD
  9
$CLAYER
  8
0
  9
$CELTYPE
  6
BYLAYER
  9
$CECOLOR
 62
256
  9
$DIMSCALE
 40
1
  9
$DIMASZ
 40
0.18
  9
$DIMEXO
 40
0.0625
  9
$DIMDLI
 40
0.38
  9
$DIMRND
 40
0
  9
$DIMDLE
 40
0
  9
$DIMEXE
 40
0.18
  9
$DIMTP
 40
0
  9
$DIMTM
 40
0
  9
$DIMTXT
 40
0.18
  9
$DIMCEN
 40
0.09
  9
$DIMTSZ
 40
0
  9
$DIMTOL
 70
0
  9
$DIMLIM
 70
0
  9
$DIMTIH
 70
1
  9
$DIMTOH
 70
1
  9
$DIMSE1
 70
0
  9
$DIMSE2
 70
0
  9
$DIMTAD
 70
0
  9
$DIMZIN
 70
0
  9
$DIMBLK
  1

  9
$DIMASO
 70
1
  9
$DIMSHO
 70
1
  9
$DIMPOST
  1

  9
$DIMAPOST
  1

  9
$DIMALT
 70
0
  9
$DIMALTD
 70
2
  9
$DIMALTF
 40
25.4
  9
$DIMLFAC
 40
1
  9
$DIMTOFL
 70
0
  9
$DIMTVP
 40
0
  9
$DIMTIX
 70
0
  9
$DIMSOXD
 70
0
  9
$DIMSAH
 70
0
  9
$DIMBLK1
  1

  9
$DIMBLK2
  1

  9
$DIMSTYLE
  2
*UNNAMED
  9
$DIMCLRD
 70
0
  9
$DIMCLRE
 70
0
  9
$DIMCLRT
 70
0
  9
$DIMTFAC
 40
1
  9
$DIMGAP
 40
0.09
  9
$LUNITS
 70
2
  9
$LUPREC
 70
4
  9
$AXISMODE
 70
0
  9
$AXISUNIT
 10
0
 20
0
  9
$SKETCHINC
 40
0.1
  9
$FILLETRAD
 40
2
  9
$AUNITS
 70
0
  9
$AUPREC
 70
0
  9
$MENU
  1
ACAD
  9
$ELEVATION
 40
0
  9
$THICKNESS
 40
0
  9
$VIEWDIR
 10
0
 20
0
 30
1
  9
$LIMCHECK
 70
0
  9
$BLIPMODE
 70
1
  9
$CHAMFERA
 40
0
  9
$CHAMFERB
 40
0
  9
$FASTZOOM
 70
1
  9
$SKPOLY
 70
0
  9
$ANGBASE
 50
0
  9
$ANGDIR
 70
0
  9
$PDMODE
 70
0
  9
$PDSIZE
 40
0
  9
$PLINEWID
 40
0
  9
$COORDS
 70
2
  0
ENDSEC
  0
SECTION
  2
TABLES
  0
TABLE
  2
DIMSTYLE
 70
0
  0
ENDTAB
  0
TABLE
  2
LTYPE
 70
9
  0
LTYPE
  2
CONTINUOUS
 70
64
  3
Solid line
 72
65
 73
0
 40
0
  0
LTYPE
  2
BORDER
 70
64
  3
__ __ . __ __ .
 72
65
 73
6
 40
12.35007018232083
 49
3.528591480663094
 49
-1.764295740331547
 49
3.528591480663094
 49
-1.764295740331547
 49
0
 49
-1.764295740331547
  0
LTYPE
  2
CENTER
 70
64
  3
____ _ ____ _
 72
65
 73
4
 40
14.11436592265238
 49
8.821478701657735
 49
-1.764295740331547
 49
1.764295740331547
 49
-1.764295740331547
  0
LTYPE
  2
DASHDOT
 70
64
  3
__ . __ . __ .
 72
65
 73
4
 40
7.057182961326189
 49
3.528591480663094
 49
-1.764295740331547
 49
0
 49
-1.764295740331547
  0
LTYPE
  2
DASHED
 70
64
  3
__ __ __ __ __
 72
65
 73
2
 40
5.292887220994642
 49
3.528591480663094
 49
-1.764295740331547
  0
LTYPE
  2
DIVIDE
 70
64
  3
__ . . __ . . 
 72
65
 73
6
 40
8.821478701657735
 49
3.528591480663094
 49
-1.764295740331547
 49
0
 49
-1.764295740331547
 49
0
 49
-1.764295740331547
  0
LTYPE
  2
DOT
 70
64
  3
..............
 72
65
 73
4
 40
3.528591480663094
 49
0
 49
-1.764295740331547
 49
0
 49
-1.764295740331547
  0
LTYPE
  2
HIDDEN
 70
64
  3
_ _ _ _ _ _ _
 72
65
 73
2
 40
2.646443610497321
 49
1.764295740331547
 49
-0.8821478701657736
  0
LTYPE
  2
PHANTOM
 70
64
  3
_____ _ _ _____ _ _ 
 72
65
 73
6
 40
17.64295740331547
 49
8.821478701657735
 49
-1.764295740331547
 49
1.764295740331547
 49
-1.764295740331547
 49
1.764295740331547
 49
-1.764295740331547
  0
ENDTAB
  0
TABLE
  2
LAYER
 70
3
  0
LAYER
  2
1
 70
0
 62
7
  6
CONTINUOUS
  0
LAYER
  2
0
 70
0
 62
7
  6
CONTINUOUS
  0
ENDTAB
  0
TABLE
  2
STYLE
 70
4
  0
STYLE
  2
STANDARD
 70
0
 40
0
 41
1
 50
0
 71
0
 42
3.5
  3
txt
  4

  0
STYLE
  2
SIMPLEX
 70
0
 40
0
 41
1
 50
0
 71
0
 42
3.5
  3
simplex
  4

  0
STYLE
  2
COMPLEX
 70
0
 40
0
 41
1
 50
0
 71
0
 42
3.5
  3
complex
  4

  0
STYLE
  2
ITALIC
 70
0
 40
0
 41
1
 50
0
 71
0
 42
3.5
  3
italic
  4

  0
ENDTAB
  0
TABLE
  2
VIEW
 70
0
  0
ENDTAB
  0
ENDSEC
  0
SECTION
  2
BLOCKS
  0
ENDSEC
  0
SECTION
  2
ENTITIES
  0
LINE
  8
1
 62
3
  6
CENTER
 10
-132.4531110477722
 20
534.1640054339844
 30
0
 11
-132.4531110477722
 21
522.1677135356752
 31
0
  0
LINE
  8
1
 62
3
  6
CENTER
 10
-138.3882354259927
 20
528.4595783775187
 30
0
 11
-126.532251035266
 21
528.4595783775187
 31
0
  0
LINE
  8
1
 62
7
 10
-157.4531110477722
 20
522.9595783775187
 30
0
 11
-157.4531110477722
 21
537.3595783775187
 31
0
  0
LINE
  8
1
 62
3
  6
CENTER
 10
-90.65311104777217
 20
542.4595783775187
 30
0
 11
-84.25311104777218
 21
542.4595783775187
 31
0
  0
LINE
  8
1
 62
7
 10
-110.4531110477722
 20
549.9595783775187
 30
0
 11
-4.453111047772197
 21
549.9595783775187
 31
0
  0
LINE
  8
1
 62
7
 10
-7.453111047772197
 20
549.9595783775187
 30
0
 11
-7.453111047772197
 21
537.7595783775187
 31
0
  0
LINE
  8
1
 62
7
 10
-18.4531110477722
 20
547.9595783775187
 30
0
 11
-7.453111047772197
 21
547.9595783775187
 31
0
  0
LINE
  8
1
 62
7
 10
-4.453111047772197
 20
549.9595783775187
 30
0
 11
-4.453111047772197
 21
537.3595783775187
 31
0
  0
LINE
  8
1
 62
7
 10
-18.4531110477722
 20
537.7595783775187
 30
0
 11
-18.4531110477722
 21
549.9595783775187
 31
0
  0
LINE
  8
1
 62
7
 10
-107.4531110477722
 20
537.7595783775187
 30
0
 11
-7.453111047772197
 21
537.7595783775187
 31
0
  0
LINE
  8
1
 62
7
 10
-107.4531110477722
 20
549.9595783775187
 30
0
 11
-107.4531110477722
 21
537.7595783775187
 31
0
  0
LINE
  8
1
 62
7
 10
-107.4531110477722
 20
547.9595783775187
 30
0
 11
-96.4531110477722
 21
547.9595783775187
 31
0
  0
LINE
  8
1
 62
7
 10
-110.4531110477722
 20
549.9595783775187
 30
0
 11
-110.4531110477722
 21
537.3595783775187
 31
0
  0
LINE
  8
1
 62
7
 10
-96.4531110477722
 20
537.7595783775187
 30
0
 11
-96.4531110477722
 21
549.9595783775187
 31
0
  0
LINE
  8
1
 62
3
  6
CENTER
 10
-87.4531110477722
 20
545.6595783775188
 30
0
 11
-87.4531110477722
 21
539.2595783775187
 31
0
  0
LINE
  8
1
 62
3
  6
CENTER
 10
-75.65311104777217
 20
542.4595783775187
 30
0
 11
-69.25311104777218
 21
542.4595783775187
 31
0
  0
LINE
  8
1
 62
3
  6
CENTER
 10
-72.4531110477722
 20
539.2595783775187
 30
0
 11
-72.4531110477722
 21
545.6595783775188
 31
0
  0
LINE
  8
1
 62
3
  6
CENTER
 10
-60.65311104777218
 20
542.4595783775187
 30
0
 11
-54.25311104777218
 21
542.4595783775187
 31
0
  0
LINE
  8
1
 62
3
  6
CENTER
 10
-57.4531110477722
 20
539.2595783775187
 30
0
 11
-57.4531110477722
 21
545.6595783775188
 31
0
  0
LINE
  8
1
 62
3
  6
CENTER
 10
-45.65311104777218
 20
542.4595783775187
 30
0
 11
-39.25311104777218
 21
542.4595783775187
 31
0
  0
LINE
  8
1
 62
3
  6
CENTER
 10
-42.4531110477722
 20
539.2595783775187
 30
0
 11
-42.4531110477722
 21
545.6595783775188
 31
0
  0
LINE
  8
1
 62
3
  6
CENTER
 10
-30.65311104777217
 20
542.4595783775187
 30
0
 11
-24.25311104777218
 21
542.4595783775187
 31
0
  0
LINE
  8
1
 62
3
  6
CENTER
 10
-27.4531110477722
 20
539.2595783775187
 30
0
 11
-27.4531110477722
 21
545.6595783775188
 31
0
  0
LINE
  8
1
 62
3
  6
CENTER
 10
31.61176457400731
 20
528.4595783775187
 30
0
 11
43.467748964734
 21
528.4595783775187
 31
0
  0
LINE
  8
1
 62
3
  6
CENTER
 10
37.5468889522278
 20
534.1640054339844
 30
0
 11
37.5468889522278
 21
522.1677135356752
 31
0
  0
LINE
  8
1
 62
3
  6
CENTER
 10
-32.4531110477722
 20
534.1640054339844
 30
0
 11
-32.4531110477722
 21
522.1677135356752
 31
0
  0
LINE
  8
1
 62
3
  6
CENTER
 10
-38.38823542599268
 20
528.4595783775187
 30
0
 11
-26.53225103526601
 21
528.4595783775187
 31
0
  0
LINE
  8
1
 62
3
  6
CENTER
 10
-82.4531110477722
 20
534.1640054339844
 30
0
 11
-82.4531110477722
 21
522.1677135356752
 31
0
  0
LINE
  8
1
 62
3
  6
CENTER
 10
-88.38823542599268
 20
528.4595783775187
 30
0
 11
-76.53225103526602
 21
528.4595783775187
 31
0
  0
LINE
  8
1
 62
7
 10
-157.4531110477722
 20
522.9595783775187
 30
0
 11
-2.965758569884478
 21
522.9595783775187
 31
0
  0
LINE
  8
1
 62
2
  6
CENTER
 10
-72.4531110477722
 20
544.4595783775187
 30
0
 11
-72.4531110477722
 21
544.1095783775187
 31
0
  0
LINE
  8
1
 62
2
  6
CENTER
 10
-57.4531110477722
 20
544.4595783775187
 30
0
 11
-57.4531110477722
 21
544.1095783775187
 31
0
  0
LINE
  8
1
 62
2
  6
CENTER
 10
-42.4531110477722
 20
544.4595783775187
 30
0
 11
-42.4531110477722
 21
544.1095783775187
 31
0
  0
LINE
  8
1
 62
7
  6
CENTER
 10
-27.4531110477722
 20
544.4595783775187
 30
0
 11
-27.4531110477722
 21
544.1095783775187
 31
0
  0
LINE
  8
1
 62
7
 10
62.54688895222779
 20
537.3595783775187
 30
0
 11
62.54688895222779
 21
522.9595783775187
 31
0
  0
LINE
  8
1
 62
7
 10
62.54688895222779
 20
537.3595783775187
 30
0
 11
6.532123893452507
 21
537.3595783775187
 31
0
  0
LINE
  8
1
 62
7
 10
-187.8726177221588
 20
539.6106931063512
 30
0
 11
-187.8726177221577
 21
539.6106931063523
 31
0
  0
LINE
  8
1
 62
7
 10
-189.4282526407671
 20
538.0550581877429
 30
0
 11
-187.8726177221577
 21
539.6106931063523
 31
0
  0
LINE
  8
1
 62
7
 10
-204.2774950456859
 20
539.6106931063525
 30
0
 11
-202.7218601270756
 21
538.0550581877423
 31
0
  0
LINE
  8
1
 62
7
 10
-204.2774950456846
 20
545.8332327807949
 30
0
 11
-204.2774950456859
 21
539.6106931063525
 31
0
  0
LINE
  8
1
 62
7
 10
-200.4591184272762
 20
549.6516093992033
 30
0
 11
-204.2774950456846
 21
545.8332327807949
 31
0
  0
LINE
  8
1
 62
7
 10
-187.575056383923
 20
545.4595783775217
 30
0
 11
-187.575056383923
 21
538.2595783775216
 31
0
  0
LINE
  8
1
 62
7
 10
-196.075056383923
 20
522.9595783775187
 30
0
 11
-204.075056383923
 21
522.9595783775187
 31
0
  0
LINE
  8
1
 62
7
 10
-204.575056383923
 20
536.8595783775202
 30
0
 11
-204.575056383923
 21
523.4595783775187
 31
0
  0
LINE
  8
1
 62
7
 10
-201.8634835086688
 20
537.3595783775202
 30
0
 11
-204.075056383923
 21
537.3595783775202
 31
0
  0
LINE
  8
1
 62
7
 10
-201.8634835086688
 20
537.3595783775202
 30
0
 11
-199.4650563839224
 21
534.9611512527802
 31
0
  0
LINE
  8
1
 62
7
 10
-199.4650563839224
 20
534.9611512527802
 30
0
 11
-197.066629259176
 21
537.3595783775202
 31
0
  0
LINE
  8
1
 62
7
 10
-197.066629259176
 20
537.3595783775202
 30
0
 11
-195.083483508669
 21
537.3595783775202
 31
0
  0
LINE
  8
1
 62
7
 10
-200.0750563839217
 20
549.9595783775186
 30
0
 11
-192.0750563839217
 21
549.9595783775186
 31
0
  0
LINE
  8
1
 62
7
 10
-204.075056383923
 20
537.3595783775202
 30
0
 11
-204.575056383923
 21
536.8595783775202
 31
0
  0
LINE
  8
1
 62
7
 10
-204.575056383923
 20
523.4595783775187
 30
0
 11
-204.075056383923
 21
522.9595783775187
 31
0
  0
LINE
  8
1
 62
7
 10
-188.075056383923
 20
537.7595783775216
 30
0
 11
-187.575056383923
 21
538.2595783775216
 31
0
  0
LINE
  8
1
 62
7
 10
-188.075056383923
 20
522.9595783775187
 30
0
 11
-187.575056383923
 21
523.4595783775187
 31
0
  0
LINE
  8
1
 62
7
 10
-187.575056383923
 20
536.8595783775202
 30
0
 11
-188.075056383923
 21
537.3595783775202
 31
0
  0
LINE
  8
1
 62
7
 10
-188.075056383923
 20
537.7595783775216
 30
0
 11
-189.2750563839217
 21
537.7595783775216
 31
0
  0
LINE
  8
1
 62
7
 10
-195.083483508669
 20
537.3595783775202
 30
0
 11
-192.6850563839227
 21
534.9611512527802
 31
0
  0
LINE
  8
1
 62
7
 10
-192.6850563839227
 20
534.9611512527802
 30
0
 11
-190.2866292591763
 21
537.3595783775202
 31
0
  0
LINE
  8
1
 62
7
 10
-188.075056383923
 20
537.3595783775202
 30
0
 11
-190.2866292591763
 21
537.3595783775202
 31
0
  0
LINE
  8
1
 62
7
 10
-187.575056383923
 20
523.4595783775187
 30
0
 11
-187.575056383923
 21
536.8595783775202
 31
0
  0
LINE
  8
1
 62
7
 10
-188.075056383923
 20
522.9595783775187
 30
0
 11
-196.075056383923
 21
522.9595783775187
 31
0
  0
LINE
  8
1
 62
3
  6
CENTER
 10
-205.6260635781674
 20
528.4595783775187
 30
0
 11
-186.3958477508287
 21
528.4595783775187
 31
0
  0
LINE
  8
1
 62
7
 10
-204.2774950456851
 20
543.2876483685217
 30
0
 11
-203.9239416550924
 21
542.934094977929
 31
0
  0
LINE
  8
1
 62
7
 10
-203.9239416550924
 20
542.934094977929
 30
0
 11
-203.7471649597958
 21
543.1108716732258
 31
0
  0
LINE
  8
1
 62
7
 10
-200.4237630882189
 20
539.7874698016489
 30
0
 11
-200.6005397835156
 21
539.6106931063523
 31
0
  0
LINE
  8
1
 62
7
 10
-200.6005397835156
 20
539.6106931063523
 30
0
 11
-199.0449048649058
 21
538.0550581877424
 31
0
  0
LINE
  8
1
 62
7
 10
-189.0746992501751
 20
547.0353143088114
 30
0
 11
-192.1859690873959
 21
543.9240444715906
 31
0
  0
LINE
  8
1
 62
7
 10
-192.1859690873959
 20
543.9240444715906
 30
0
 11
-191.5495729843278
 21
543.2876483685224
 31
0
  0
LINE
  8
1
 62
7
 10
-191.5495729843278
 20
543.2876483685224
 30
0
 11
-191.7263496796244
 21
543.1108716732258
 31
0
  0
LINE
  8
1
 62
7
 10
-188.4029478080477
 20
539.7874698016489
 30
0
 11
-188.226171112751
 21
539.9642464969455
 31
0
  0
LINE
  8
1
 62
7
 10
-188.226171112751
 20
539.9642464969455
 30
0
 11
-187.8726177221577
 21
539.6106931063523
 31
0
  0
LINE
  8
1
 62
7
 10
-187.8726177221577
 20
539.6106931063523
 30
0
 11
-187.8726177221575
 21
545.8332327807937
 31
0
  0
LINE
  8
1
 62
7
 10
-187.8726177221577
 20
539.6106931063523
 30
0
 11
-187.8726177221588
 21
539.6106931063512
 31
0
  0
LINE
  8
1
 62
7
 10
-190.4889128125482
 20
548.4495278711844
 30
0
 11
-193.600182649769
 21
545.3382580339636
 31
0
  0
LINE
  8
1
 62
7
 10
-191.6909943405646
 20
549.6516093992008
 30
0
 11
-187.8726177221575
 21
545.8332327807937
 31
0
  0
LINE
  8
1
 62
7
 10
-193.600182649769
 20
545.3382580339636
 30
0
 11
-194.2365787528367
 21
545.9746541370312
 31
0
  0
LINE
  8
1
 62
7
 10
-194.2365787528367
 20
545.9746541370312
 30
0
 11
-194.4133554481333
 21
545.7978774417345
 31
0
  0
LINE
  8
1
 62
7
 10
-197.7367573197101
 20
549.1212793133112
 30
0
 11
-197.5599806244134
 21
549.2980560086079
 31
0
  0
LINE
  8
1
 62
7
 10
-197.5599806244134
 20
549.2980560086079
 30
0
 11
-197.913534015008
 21
549.6516093992026
 31
0
  0
LINE
  8
1
 62
7
 10
-200.4591184272762
 20
549.6516093992033
 30
0
 11
-191.6909943405646
 21
549.6516093992008
 31
0
  0
LINE
  8
1
 62
7
 10
-198.3705361941425
 20
538.0550581877424
 30
0
 11
-198.0750563839217
 21
537.7595783775216
 31
0
  0
LINE
  8
1
 62
7
 10
-202.8750563839217
 20
537.7595783775216
 30
0
 11
-202.5795765737011
 21
538.0550581877423
 31
0
  0
LINE
  8
1
 62
7
 10
-202.8750563839217
 20
537.7595783775216
 30
0
 11
-203.5772756892976
 21
537.7595783775216
 31
0
  0
LINE
  8
1
 62
7
 10
-194.0750563839217
 20
537.7595783775216
 30
0
 11
-193.7795765737006
 21
538.0550581877427
 31
0
  0
LINE
  8
1
 62
7
 10
-194.0750563839217
 20
537.7595783775216
 30
0
 11
-198.0750563839217
 21
537.7595783775216
 31
0
  0
LINE
  8
1
 62
7
 10
-189.570536194143
 20
538.0550581877429
 30
0
 11
-189.2750563839217
 21
537.7595783775216
 31
0
  0
LINE
  8
1
 62
7
 10
-189.4282526407671
 20
538.0550581877429
 30
0
 11
-202.7218601270756
 21
538.0550581877423
 31
0
  0
LINE
  8
1
 62
7
 10
-204.575056383923
 20
545.4595783775217
 30
0
 11
-204.2774950456846
 21
545.7571397157598
 31
0
  0
LINE
  8
1
 62
7
 10
-200.3830253622374
 20
549.6516093992033
 30
0
 11
-200.0750563839217
 21
549.9595783775186
 31
0
  0
LINE
  8
1
 62
7
 10
-192.0750563839217
 20
549.9595783775186
 30
0
 11
-191.7670874056036
 21
549.6516093992008
 31
0
  0
LINE
  8
1
 62
7
 10
-187.8726177221575
 20
545.757139715756
 30
0
 11
-187.575056383923
 21
545.4595783775217
 31
0
  0
LINE
  8
1
 62
7
 10
-204.575056383923
 20
538.7573590721468
 30
0
 11
-203.5772756892976
 21
537.7595783775216
 31
0
  0
LINE
  8
1
 62
7
 10
-204.575056383923
 20
538.7573590721468
 30
0
 11
-204.575056383923
 21
545.4595783775217
 31
0
  0
LINE
  8
1
 62
3
  6
CENTER
 10
-196.0750563839217
 20
549.291914547662
 30
0
 11
-196.0750563839217
 21
544.4764656711611
 31
0
  0
LINE
  8
1
 62
3
  6
CENTER
 10
-190.064648743836
 20
543.5582656735242
 30
0
 11
-190.064648743836
 21
538.6203901306722
 31
0
  0
LINE
  8
1
 62
3
  6
CENTER
 10
-202.0854640240074
 20
544.3744434492021
 30
0
 11
-202.0854640240074
 21
538.9876701297271
 31
0
  0
LINE
  8
1
 62
3
  6
CENTER
 10
-193.854118334562
 20
547.459578377523
 30
0
 11
-199.036847210118
 21
547.459578377523
 31
0
  0
LINE
  8
1
 62
3
  6
CENTER
 10
-199.016442765726
 20
541.4491707374372
 30
0
 11
-203.995127197362
 21
541.4491707374372
 31
0
  0
LINE
  8
1
 62
3
  6
CENTER
 10
-193.262389447196
 20
541.4491707374372
 30
0
 11
-188.161278349208
 21
541.4491707374372
 31
0
  0
LINE
  8
1
 62
3
  6
PHANTOM
 10
5.303003656111983
 20
545.6778158802833
 30
0
 11
2.275412803548846
 21
537.3595783775187
 31
0
  0
LINE
  8
1
 62
7
 10
2.275412803548846
 20
537.3595783775187
 30
0
 11
-157.4531110477722
 21
537.3595783775187
 31
0
  0
LINE
  8
1
 62
3
  6
PHANTOM
 10
2.275412803548846
 20
537.3595783775187
 30
0
 11
-2.965758569884478
 21
522.9595783775187
 31
0
  0
LINE
  8
1
 62
3
  6
PHANTOM
 10
-2.965758569884478
 20
522.9595783775187
 30
0
 11
-4.469313545927022
 21
518.8285950319332
 31
0
  0
LINE
  8
1
 62
3
  6
PHANTOM
 10
9.549874737583664
 20
545.6507806793093
 30
0
 11
6.532123893452507
 21
537.3595783775187
 31
0
  0
LINE
  8
1
 62
3
  6
PHANTOM
 10
6.532123893452507
 20
537.3595783775187
 30
0
 11
1.290952520019175
 21
522.9595783775187
 31
0
  0
LINE
  8
1
 62
7
 10
1.290952520019175
 20
522.9595783775187
 30
0
 11
62.54688895222779
 21
522.9595783775187
 31
0
  0
LINE
  8
1
 62
3
  6
PHANTOM
 10
1.290952520019175
 20
522.9595783775187
 30
0
 11
-0.08420694244286153
 21
519.1813588062549
 31
0
  0
CIRCLE
  8
1
 62
3
 10
-87.4531110477722
 20
542.4595783775187
 30
0
 40
2
  0
CIRCLE
  8
1
 62
7
 10
-87.4531110477722
 20
542.4595783775187
 30
0
 40
1.649999999999977
  0
CIRCLE
  8
1
 62
7
 10
-72.4531110477722
 20
542.4595783775187
 30
0
 40
1.649999999999977
  0
CIRCLE
  8
1
 62
3
 10
-72.4531110477722
 20
542.4595783775187
 30
0
 40
2
  0
CIRCLE
  8
1
 62
7
 10
-57.4531110477722
 20
542.4595783775187
 30
0
 40
1.649999999999977
  0
CIRCLE
  8
1
 62
3
 10
-57.4531110477722
 20
542.4595783775187
 30
0
 40
2
  0
CIRCLE
  8
1
 62
7
 10
-42.4531110477722
 20
542.4595783775187
 30
0
 40
1.649999999999977
  0
CIRCLE
  8
1
 62
3
 10
-42.4531110477722
 20
542.4595783775187
 30
0
 40
2
  0
CIRCLE
  8
1
 62
7
 10
-27.4531110477722
 20
542.4595783775187
 30
0
 40
1.649999999999977
  0
CIRCLE
  8
1
 62
3
 10
-27.4531110477722
 20
542.4595783775187
 30
0
 40
2
  0
ARC
  8
1
 62
7
 10
-202.0854640240074
 20
541.4491707374372
 30
0
 40
2.350000000000023
 50
315.0000000000034
 51
134.9999999999961
  0
ARC
  8
1
 62
7
 10
-190.064648743836
 20
541.4491707374372
 30
0
 40
2.350000000000204
 50
134.9999999999961
 51
314.9999999999995
  0
ARC
  8
1
 62
7
 10
-196.0750563839217
 20
547.459578377523
 30
0
 40
2.349999999999882
 50
135.0000000000039
 51
314.9999999999976
  0
CIRCLE
  8
1
 62
7
 10
-132.4531110477722
 20
528.4595783775187
 30
0
 40
4
  0
CIRCLE
  8
1
 62
7
 10
-132.4531110477722
 20
528.4595783775187
 30
0
 40
2.25
  0
CIRCLE
  8
1
 62
7
 10
37.5468889522278
 20
528.4595783775187
 30
0
 40
2.25
  0
CIRCLE
  8
1
 62
7
 10
37.5468889522278
 20
528.4595783775187
 30
0
 40
4
  0
CIRCLE
  8
1
 62
7
 10
-32.4531110477722
 20
528.4595783775187
 30
0
 40
3.999999999999996
  0
CIRCLE
  8
1
 62
7
 10
-32.4531110477722
 20
528.4595783775187
 30
0
 40
2.249999999999996
  0
CIRCLE
  8
1
 62
7
 10
-82.4531110477722
 20
528.4595783775187
 30
0
 40
4
  0
CIRCLE
  8
1
 62
7
 10
-82.4531110477722
 20
528.4595783775187
 30
0
 40
2.25
  0
CIRCLE
  8
1
 62
7
 10
-196.0750563839217
 20
547.459578377523
 30
0
 40
1.500000000000032
  0
CIRCLE
  8
1
 62
7
 10
-190.064648743836
 20
541.4491707374372
 30
0
 40
1.499999999999871
  0
CIRCLE
  8
1
 62
7
 10
-202.0854640240074
 20
541.4491707374372
 30
0
 40
1.499999999999932
  0
TEXT
  8
1
 62
2
 10
-7.466870004408698
 20
496.5462598067671
 30
0
 40
4
  1
UNION TOOL CO.
 41
0.9
  7
COMPLEX
  0
TEXT
  8
1
 62
2
 10
-204.8467553468103
 20
577.364718761894
 30
0
 40
4
  1
MODEL : TGH3SL
 41
0.9
  7
COMPLEX
  0
ENDSEC
  0
EOF
