  0
SECTION
  2
HEADER
  9
$ACADVER
  1
AC1009
  9
$INSBASE
 10
0
 20
0
  9
$EXTMIN
 10
61.5972439850753
 20
980.373614907542
  9
$EXTMAX
 10
185.960787952524
 20
1067.44376500974
  9
$LIMMIN
 10
61.5972439850753
 20
980.373614907542
  9
$LIMMAX
 10
185.960787952524
 20
1067.44376500974
  9
$VIEWCTR
 10
10
 20
10
  9
$VIEWSIZE
 40
10
  9
$SNAPMODE
 70
0
  9
$SNAPUNIT
 10
1
 20
1
  9
$SNAPBASE
 10
0
 20
0
  9
$SNAPANG
 50
0
  9
$SNAPSTYLE
 70
0
  9
$SNAPISOPAIR
 70
0
  9
$GRIDMODE
 70
0
  9
$GRIDUNIT
 10
0
 20
0
  9
$ORTHOMODE
 70
0
  9
$REGENMODE
 70
1
  9
$FILLMODE
 70
1
  9
$QTEXTMODE
 70
0
  9
$DRAGMODE
 70
2
  9
$LTSCALE
 40
1
  9
$OSMODE
 70
0
  9
$ATTMODE
 70
1
  9
$TEXTSIZE
 40
3.5
  9
$TRACEWID
 40
0.5
  9
$TEXTSTYLE
  7
STANDARD
  9
$CLAYER
  8
0
  9
$CELTYPE
  6
BYLAYER
  9
$CECOLOR
 62
256
  9
$DIMSCALE
 40
1
  9
$DIMASZ
 40
0.18
  9
$DIMEXO
 40
0.0625
  9
$DIMDLI
 40
0.38
  9
$DIMRND
 40
0
  9
$DIMDLE
 40
0
  9
$DIMEXE
 40
0.18
  9
$DIMTP
 40
0
  9
$DIMTM
 40
0
  9
$DIMTXT
 40
0.18
  9
$DIMCEN
 40
0.09
  9
$DIMTSZ
 40
0
  9
$DIMTOL
 70
0
  9
$DIMLIM
 70
0
  9
$DIMTIH
 70
1
  9
$DIMTOH
 70
1
  9
$DIMSE1
 70
0
  9
$DIMSE2
 70
0
  9
$DIMTAD
 70
0
  9
$DIMZIN
 70
0
  9
$DIMBLK
  1

  9
$DIMASO
 70
1
  9
$DIMSHO
 70
1
  9
$DIMPOST
  1

  9
$DIMAPOST
  1

  9
$DIMALT
 70
0
  9
$DIMALTD
 70
2
  9
$DIMALTF
 40
25.4
  9
$DIMLFAC
 40
1
  9
$DIMTOFL
 70
0
  9
$DIMTVP
 40
0
  9
$DIMTIX
 70
0
  9
$DIMSOXD
 70
0
  9
$DIMSAH
 70
0
  9
$DIMBLK1
  1

  9
$DIMBLK2
  1

  9
$DIMSTYLE
  2
*UNNAMED
  9
$DIMCLRD
 70
0
  9
$DIMCLRE
 70
0
  9
$DIMCLRT
 70
0
  9
$DIMTFAC
 40
1
  9
$DIMGAP
 40
0.09
  9
$LUNITS
 70
2
  9
$LUPREC
 70
4
  9
$AXISMODE
 70
0
  9
$AXISUNIT
 10
0
 20
0
  9
$SKETCHINC
 40
0.1
  9
$FILLETRAD
 40
2
  9
$AUNITS
 70
0
  9
$AUPREC
 70
0
  9
$MENU
  1
ACAD
  9
$ELEVATION
 40
0
  9
$THICKNESS
 40
0
  9
$VIEWDIR
 10
0
 20
0
 30
1
  9
$LIMCHECK
 70
0
  9
$BLIPMODE
 70
1
  9
$CHAMFERA
 40
0
  9
$CHAMFERB
 40
0
  9
$FASTZOOM
 70
1
  9
$SKPOLY
 70
0
  9
$ANGBASE
 50
0
  9
$ANGDIR
 70
0
  9
$PDMODE
 70
0
  9
$PDSIZE
 40
0
  9
$PLINEWID
 40
0
  9
$COORDS
 70
2
  0
ENDSEC
  0
SECTION
  2
TABLES
  0
TABLE
  2
DIMSTYLE
 70
0
  0
ENDTAB
  0
TABLE
  2
LTYPE
 70
9
  0
LTYPE
  2
CONTINUOUS
 70
64
  3
Solid line
 72
65
 73
0
 40
0
  0
LTYPE
  2
BORDER
 70
64
  3
__ __ . __ __ .
 72
65
 73
6
 40
5.727268472185137
 49
1.636362420624325
 49
-0.8181812103121624
 49
1.636362420624325
 49
-0.8181812103121624
 49
0
 49
-0.8181812103121624
  0
LTYPE
  2
CENTER
 70
64
  3
____ _ ____ _
 72
65
 73
4
 40
6.545449682497299
 49
4.090906051560812
 49
-0.8181812103121624
 49
0.8181812103121624
 49
-0.8181812103121624
  0
LTYPE
  2
DASHDOT
 70
64
  3
__ . __ . __ .
 72
65
 73
4
 40
3.27272484124865
 49
1.636362420624325
 49
-0.8181812103121624
 49
0
 49
-0.8181812103121624
  0
LTYPE
  2
DASHED
 70
64
  3
__ __ __ __ __
 72
65
 73
2
 40
2.454543630936487
 49
1.636362420624325
 49
-0.8181812103121624
  0
LTYPE
  2
DIVIDE
 70
64
  3
__ . . __ . . 
 72
65
 73
6
 40
4.090906051560812
 49
1.636362420624325
 49
-0.8181812103121624
 49
0
 49
-0.8181812103121624
 49
0
 49
-0.8181812103121624
  0
LTYPE
  2
DOT
 70
64
  3
..............
 72
65
 73
4
 40
1.636362420624325
 49
0
 49
-0.8181812103121624
 49
0
 49
-0.8181812103121624
  0
LTYPE
  2
HIDDEN
 70
64
  3
_ _ _ _ _ _ _
 72
65
 73
2
 40
1.227271815468244
 49
0.8181812103121624
 49
-0.4090906051560812
  0
LTYPE
  2
PHANTOM
 70
64
  3
_____ _ _ _____ _ _ 
 72
65
 73
6
 40
8.181812103121624
 49
4.090906051560812
 49
-0.8181812103121624
 49
0.8181812103121624
 49
-0.8181812103121624
 49
0.8181812103121624
 49
-0.8181812103121624
  0
ENDTAB
  0
TABLE
  2
LAYER
 70
4
  0
LAYER
  2
1
 70
0
 62
7
  6
CONTINUOUS
  0
LAYER
  2
CONSTRUCTION
 70
0
 62
7
  6
CONTINUOUS
  0
LAYER
  2
0
 70
0
 62
7
  6
CONTINUOUS
  0
ENDTAB
  0
TABLE
  2
STYLE
 70
4
  0
STYLE
  2
STANDARD
 70
0
 40
0
 41
1
 50
0
 71
0
 42
3.5
  3
txt
  4

  0
STYLE
  2
SIMPLEX
 70
0
 40
0
 41
1
 50
0
 71
0
 42
3.5
  3
simplex
  4

  0
STYLE
  2
COMPLEX
 70
0
 40
0
 41
1
 50
0
 71
0
 42
3.5
  3
complex
  4

  0
STYLE
  2
ITALIC
 70
0
 40
0
 41
1
 50
0
 71
0
 42
3.5
  3
italic
  4

  0
ENDTAB
  0
TABLE
  2
VIEW
 70
0
  0
ENDTAB
  0
ENDSEC
  0
SECTION
  2
BLOCKS
  0
ENDSEC
  0
SECTION
  2
ENTITIES
  0
LINE
  8
1
 62
7
 10
162.197123056944
 20
1023.502276643999
 30
0
 11
162.197123056944
 21
1024.302276643999
 31
0
  0
LINE
  8
1
 62
7
 10
162.197123056944
 20
1024.302276643999
 30
0
 11
162.697123056944
 21
1024.302276643999
 31
0
  0
LINE
  8
1
 62
7
 10
162.697123056944
 20
1024.302276643999
 30
0
 11
162.697123056944
 21
1023.502276643999
 31
0
  0
LINE
  8
1
 62
7
 10
161.947123056944
 20
1023.252276643999
 30
0
 11
161.147123056944
 21
1023.252276643999
 31
0
  0
LINE
  8
1
 62
7
 10
161.147123056944
 20
1023.252276643999
 30
0
 11
161.147123056944
 21
1022.752276643999
 31
0
  0
LINE
  8
1
 62
7
 10
161.147123056944
 20
1022.752276643999
 30
0
 11
161.947123056944
 21
1022.752276643999
 31
0
  0
LINE
  8
1
 62
7
 10
162.947123056944
 20
1023.252276643999
 30
0
 11
163.747123056944
 21
1023.252276643999
 31
0
  0
LINE
  8
1
 62
7
 10
163.747123056944
 20
1023.252276643999
 30
0
 11
163.747123056944
 21
1022.752276643999
 31
0
  0
LINE
  8
1
 62
7
 10
163.747123056944
 20
1022.752276643999
 30
0
 11
162.947123056944
 21
1022.752276643999
 31
0
  0
LINE
  8
1
 62
7
 10
162.197123056944
 20
1022.502276643999
 30
0
 11
162.197123056944
 21
1021.702276643999
 31
0
  0
LINE
  8
1
 62
7
 10
162.197123056944
 20
1021.702276643999
 30
0
 11
162.697123056944
 21
1021.702276643999
 31
0
  0
LINE
  8
1
 62
7
 10
162.697123056944
 20
1021.702276643999
 30
0
 11
162.697123056944
 21
1022.502276643999
 31
0
  0
LINE
  8
1
 62
7
 10
162.697123056944
 20
1022.502276643999
 30
0
 11
162.947123056944
 21
1022.752276643999
 31
0
  0
LINE
  8
1
 62
7
 10
162.947123056944
 20
1023.252276643999
 30
0
 11
162.697123056944
 21
1023.502276643999
 31
0
  0
LINE
  8
1
 62
7
 10
162.197123056944
 20
1023.502276643999
 30
0
 11
161.947123056944
 21
1023.252276643999
 31
0
  0
LINE
  8
1
 62
7
 10
161.947123056944
 20
1022.752276643999
 30
0
 11
162.197123056944
 21
1022.502276643999
 31
0
  0
LINE
  8
1
 62
7
 10
162.447123056944
 20
1013.852276643999
 30
0
 11
163.247123056944
 21
1013.852276643999
 31
0
  0
LINE
  8
1
 62
7
 10
163.247123056944
 20
1013.852276643999
 30
0
 11
163.247123056944
 21
1013.352276643999
 31
0
  0
LINE
  8
1
 62
7
 10
163.247123056944
 20
1013.352276643999
 30
0
 11
162.447123056944
 21
1013.352276643999
 31
0
  0
LINE
  8
1
 62
7
 10
162.197123056944
 20
1014.102276643999
 30
0
 11
162.197123056944
 21
1014.902276643999
 31
0
  0
LINE
  8
1
 62
7
 10
162.197123056944
 20
1014.902276643999
 30
0
 11
161.697123056944
 21
1014.902276643999
 31
0
  0
LINE
  8
1
 62
7
 10
161.697123056944
 20
1014.902276643999
 30
0
 11
161.697123056944
 21
1014.102276643999
 31
0
  0
LINE
  8
1
 62
7
 10
161.447123056944
 20
1013.852276643999
 30
0
 11
160.647123056944
 21
1013.852276643999
 31
0
  0
LINE
  8
1
 62
7
 10
160.647123056944
 20
1013.852276643999
 30
0
 11
160.647123056944
 21
1013.352276643999
 31
0
  0
LINE
  8
1
 62
7
 10
160.647123056944
 20
1013.352276643999
 30
0
 11
161.447123056944
 21
1013.352276643999
 31
0
  0
LINE
  8
1
 62
7
 10
161.697123056944
 20
1013.102276643999
 30
0
 11
161.697123056944
 21
1012.302276643999
 31
0
  0
LINE
  8
1
 62
7
 10
161.697123056944
 20
1012.302276643999
 30
0
 11
162.197123056944
 21
1012.302276643999
 31
0
  0
LINE
  8
1
 62
7
 10
162.197123056944
 20
1012.302276643999
 30
0
 11
162.197123056944
 21
1013.102276643999
 31
0
  0
LINE
  8
1
 62
7
 10
162.197123056944
 20
1013.102276643999
 30
0
 11
162.447123056944
 21
1013.352276643999
 31
0
  0
LINE
  8
1
 62
7
 10
162.447123056944
 20
1013.852276643999
 30
0
 11
162.197123056944
 21
1014.102276643999
 31
0
  0
LINE
  8
1
 62
7
 10
161.697123056944
 20
1014.102276643999
 30
0
 11
161.447123056944
 21
1013.852276643999
 31
0
  0
LINE
  8
1
 62
7
 10
161.447123056944
 20
1013.352276643999
 30
0
 11
161.697123056944
 21
1013.102276643999
 31
0
  0
LINE
  8
1
 62
7
 10
162.197123056944
 20
1030.302276643999
 30
0
 11
162.197123056944
 21
1031.102276643999
 31
0
  0
LINE
  8
1
 62
7
 10
162.697123056944
 20
1030.302276643999
 30
0
 11
162.197123056944
 21
1030.302276643999
 31
0
  0
LINE
  8
1
 62
7
 10
162.697123056944
 20
1031.102276643999
 30
0
 11
162.697123056944
 21
1030.302276643999
 31
0
  0
LINE
  8
1
 62
7
 10
161.147123056944
 20
1031.352276643999
 30
0
 11
161.947123056944
 21
1031.352276643999
 31
0
  0
LINE
  8
1
 62
7
 10
161.147123056944
 20
1031.852276643999
 30
0
 11
161.147123056944
 21
1031.352276643999
 31
0
  0
LINE
  8
1
 62
7
 10
161.947123056944
 20
1031.852276643999
 30
0
 11
161.147123056944
 21
1031.852276643999
 31
0
  0
LINE
  8
1
 62
7
 10
163.747123056944
 20
1031.352276643999
 30
0
 11
162.947123056944
 21
1031.352276643999
 31
0
  0
LINE
  8
1
 62
7
 10
163.747123056944
 20
1031.852276643999
 30
0
 11
163.747123056944
 21
1031.352276643999
 31
0
  0
LINE
  8
1
 62
7
 10
162.947123056944
 20
1031.852276643999
 30
0
 11
163.747123056944
 21
1031.852276643999
 31
0
  0
LINE
  8
1
 62
7
 10
162.197123056944
 20
1032.902276643999
 30
0
 11
162.197123056944
 21
1032.102276643999
 31
0
  0
LINE
  8
1
 62
7
 10
162.697123056944
 20
1032.902276643999
 30
0
 11
162.197123056944
 21
1032.902276643999
 31
0
  0
LINE
  8
1
 62
7
 10
162.697123056944
 20
1032.102276643999
 30
0
 11
162.697123056944
 21
1032.902276643999
 31
0
  0
LINE
  8
1
 62
7
 10
162.947123056944
 20
1031.852276643999
 30
0
 11
162.697123056944
 21
1032.102276643999
 31
0
  0
LINE
  8
1
 62
7
 10
162.697123056944
 20
1031.102276643999
 30
0
 11
162.947123056944
 21
1031.352276643999
 31
0
  0
LINE
  8
1
 62
7
 10
161.947123056944
 20
1031.352276643999
 30
0
 11
162.197123056944
 21
1031.102276643999
 31
0
  0
LINE
  8
1
 62
7
 10
162.197123056944
 20
1032.102276643999
 30
0
 11
161.947123056944
 21
1031.852276643999
 31
0
  0
LINE
  8
1
 62
7
 10
163.247123056944
 20
1040.752276643999
 30
0
 11
162.447123056944
 21
1040.752276643999
 31
0
  0
LINE
  8
1
 62
7
 10
163.247123056944
 20
1041.252276643999
 30
0
 11
163.247123056944
 21
1040.752276643999
 31
0
  0
LINE
  8
1
 62
7
 10
162.447123056944
 20
1041.252276643999
 30
0
 11
163.247123056944
 21
1041.252276643999
 31
0
  0
LINE
  8
1
 62
7
 10
162.197123056944
 20
1039.702276643999
 30
0
 11
162.197123056944
 21
1040.502276643999
 31
0
  0
LINE
  8
1
 62
7
 10
161.697123056944
 20
1039.702276643999
 30
0
 11
162.197123056944
 21
1039.702276643999
 31
0
  0
LINE
  8
1
 62
7
 10
161.697123056944
 20
1040.502276643999
 30
0
 11
161.697123056944
 21
1039.702276643999
 31
0
  0
LINE
  8
1
 62
7
 10
160.647123056944
 20
1040.752276643999
 30
0
 11
161.447123056944
 21
1040.752276643999
 31
0
  0
LINE
  8
1
 62
7
 10
160.647123056944
 20
1041.252276643999
 30
0
 11
160.647123056944
 21
1040.752276643999
 31
0
  0
LINE
  8
1
 62
7
 10
161.447123056944
 20
1041.252276643999
 30
0
 11
160.647123056944
 21
1041.252276643999
 31
0
  0
LINE
  8
1
 62
7
 10
161.697123056944
 20
1042.302276643999
 30
0
 11
161.697123056944
 21
1041.502276643999
 31
0
  0
LINE
  8
1
 62
7
 10
162.197123056944
 20
1042.302276643999
 30
0
 11
161.697123056944
 21
1042.302276643999
 31
0
  0
LINE
  8
1
 62
7
 10
162.197123056944
 20
1041.502276643999
 30
0
 11
162.197123056944
 21
1042.302276643999
 31
0
  0
LINE
  8
1
 62
7
 10
162.447123056944
 20
1041.252276643999
 30
0
 11
162.197123056944
 21
1041.502276643999
 31
0
  0
LINE
  8
1
 62
7
 10
162.197123056944
 20
1040.502276643999
 30
0
 11
162.447123056944
 21
1040.752276643999
 31
0
  0
LINE
  8
1
 62
7
 10
161.447123056944
 20
1040.752276643999
 30
0
 11
161.697123056944
 21
1040.502276643999
 31
0
  0
LINE
  8
1
 62
7
 10
161.697123056944
 20
1041.502276643999
 30
0
 11
161.447123056944
 21
1041.252276643999
 31
0
  0
LINE
  8
1
 62
7
 10
143.3444330797108
 20
1037.452276643999
 30
0
 11
143.3444330797108
 21
1037.202276643999
 31
0
  0
LINE
  8
1
 62
7
 10
121.6213487066465
 20
1037.202276643999
 30
0
 11
141.3444330797108
 21
1037.202276643999
 31
0
  0
LINE
  8
1
 62
7
 10
115.2371608498003
 20
1017.402276643999
 30
0
 11
70.34443307971078
 21
1017.402276643999
 31
0
  0
LINE
  8
1
 62
7
 10
115.4435100561495
 20
1018.702276643999
 30
0
 11
68.84443307971078
 21
1018.702276643999
 31
0
  0
LINE
  8
1
 62
7
 10
118.3006529132923
 20
1036.702276643999
 30
0
 11
70.34443307971078
 21
1036.702276643999
 31
0
  0
LINE
  8
1
 62
7
 10
119.5863671990065
 20
1044.802276643999
 30
0
 11
70.34443307971078
 21
1044.802276643999
 31
0
  0
LINE
  8
1
 62
7
 10
119.6657322783716
 20
1045.302276643999
 30
0
 11
70.34443307971078
 21
1045.302276643999
 31
0
  0
LINE
  8
1
 62
3
  6
DIVIDE
 10
123.2400447263773
 20
1047.400061568303
 30
0
 11
116.7810859762176
 21
1006.708621442297
 31
0
  0
LINE
  8
1
 62
3
  6
DIVIDE
 10
119.9987140123882
 20
1047.400061568303
 30
0
 11
113.5397552622285
 21
1006.708621442297
 31
0
  0
LINE
  8
1
 62
4
  6
CENTER
 10
66.84443307971077
 20
1027.302276643999
 30
0
 11
144.8444330797108
 21
1027.302276643999
 31
0
  0
LINE
  8
1
 62
3
  6
CENTER
 10
93.34443307971077
 20
1030.502276643999
 30
0
 11
93.34443307971077
 21
1024.102276643999
 31
0
  0
LINE
  8
1
 62
7
 10
70.34443307971078
 20
1017.902276643999
 30
0
 11
115.3165259291654
 21
1017.902276643999
 31
0
  0
LINE
  8
1
 62
7
 10
141.3444330797108
 20
1017.402276643999
 30
0
 11
118.4784915637894
 21
1017.402276643999
 31
0
  0
LINE
  8
1
 62
7
 10
70.34443307971078
 20
1009.802276643999
 30
0
 11
114.0308116434511
 21
1009.802276643999
 31
0
  0
LINE
  8
1
 62
7
 10
70.34443307971078
 20
1009.302276643999
 30
0
 11
113.951446564086
 21
1009.302276643999
 31
0
  0
LINE
  8
1
 62
4
  6
CENTER
 10
144.928657102278
 20
1018.302276643999
 30
0
 11
65.89374343088547
 21
1018.302276643999
 31
0
  0
LINE
  8
1
 62
7
 10
68.84443307971078
 20
1017.902276643999
 30
0
 11
70.34443307971078
 21
1017.902276643999
 31
0
  0
LINE
  8
1
 62
7
 10
70.34443307971078
 20
1017.902276643999
 30
0
 11
70.34443307971078
 21
1017.402276643999
 31
0
  0
LINE
  8
1
 62
7
 10
141.3444330797108
 20
1009.802276643999
 30
0
 11
117.2721423574403
 21
1009.802276643999
 31
0
  0
LINE
  8
1
 62
7
 10
142.8444330797108
 20
1018.702276643999
 30
0
 11
118.6848407701386
 21
1018.702276643999
 31
0
  0
LINE
  8
1
 62
7
 10
142.8444330797108
 20
1017.902276643999
 30
0
 11
118.5578566431545
 21
1017.902276643999
 31
0
  0
LINE
  8
1
 62
7
 10
141.3444330797108
 20
1017.902276643999
 30
0
 11
141.3444330797108
 21
1017.402276643999
 31
0
  0
LINE
  8
1
 62
7
 10
142.8444330797108
 20
1009.302276643999
 30
0
 11
117.1927772780751
 21
1009.302276643999
 31
0
  0
LINE
  8
1
 62
7
 10
141.3444330797108
 20
1009.802276643999
 30
0
 11
141.3444330797108
 21
1009.302276643999
 31
0
  0
LINE
  8
1
 62
7
 10
68.84443307971078
 20
1009.302276643999
 30
0
 11
70.34443307971078
 21
1009.302276643999
 31
0
  0
LINE
  8
1
 62
7
 10
70.34443307971078
 20
1009.802276643999
 30
0
 11
70.34443307971078
 21
1009.302276643999
 31
0
  0
LINE
  8
1
 62
4
  6
CENTER
 10
167.1915273677253
 20
1018.302276643999
 30
0
 11
156.6000710282679
 21
1018.302276643999
 31
0
  0
LINE
  8
1
 62
7
 10
158.447123056944
 20
1017.902276643999
 30
0
 11
160.2258027133844
 21
1017.902276643999
 31
0
  0
LINE
  8
1
 62
7
 10
157.947123056944
 20
1017.402276643999
 30
0
 11
157.947123056944
 21
1009.802276643999
 31
0
  0
LINE
  8
1
 62
7
 10
165.447123056944
 20
1009.302276643999
 30
0
 11
158.447123056944
 21
1009.302276643999
 31
0
  0
LINE
  8
1
 62
7
 10
165.947123056944
 20
1017.402276643999
 30
0
 11
165.947123056944
 21
1009.802276643999
 31
0
  0
LINE
  8
1
 62
7
 10
165.447123056944
 20
1017.902276643999
 30
0
 11
163.6684434005036
 21
1017.902276643999
 31
0
  0
LINE
  8
1
 62
7
 10
165.947123056944
 20
1018.702276643999
 30
0
 11
163.6684434005036
 21
1018.702276643999
 31
0
  0
LINE
  8
1
 62
7
 10
158.947123056944
 20
1018.702276643999
 30
0
 11
160.2258027133844
 21
1018.702276643999
 31
0
  0
LINE
  8
1
 62
3
  6
CENTER
 10
133.8444330797108
 20
1012.802276643999
 30
0
 11
126.0512606068558
 21
1012.802276643999
 31
0
  0
LINE
  8
1
 62
3
  6
CENTER
 10
130.8444330797108
 20
1008.00412933444
 30
0
 11
130.8444330797108
 21
1017.65866479544
 31
0
  0
LINE
  8
1
 62
3
  6
CENTER
 10
110.4197357578957
 20
1012.802276643999
 30
0
 11
101.0512606068558
 21
1012.802276643999
 31
0
  0
LINE
  8
1
 62
3
  6
CENTER
 10
105.8444330797108
 20
1008.00412933444
 30
0
 11
105.8444330797108
 21
1017.65866479544
 31
0
  0
LINE
  8
1
 62
3
  6
CENTER
 10
85.41973575789569
 20
1012.802276643999
 30
0
 11
76.05126060685581
 21
1012.802276643999
 31
0
  0
LINE
  8
1
 62
3
  6
CENTER
 10
80.84443307971078
 20
1008.00412933444
 30
0
 11
80.84443307971078
 21
1017.65866479544
 31
0
  0
LINE
  8
1
 62
3
  6
CENTER
 10
135.4197357578958
 20
1012.802276643999
 30
0
 11
133.8444330797108
 21
1012.802276643999
 31
0
  0
LINE
  8
1
 62
7
 10
142.8444330797108
 20
1009.302276643999
 30
0
 11
143.3444330797108
 21
1009.802276643999
 31
0
  0
LINE
  8
1
 62
7
 10
143.3444330797108
 20
1017.402276643999
 30
0
 11
142.8444330797108
 21
1017.902276643999
 31
0
  0
LINE
  8
1
 62
7
 10
143.3444330797108
 20
1019.202276643999
 30
0
 11
142.8444330797108
 21
1018.702276643999
 31
0
  0
LINE
  8
1
 62
7
 10
68.34443307971078
 20
1019.202276643999
 30
0
 11
68.84443307971078
 21
1018.702276643999
 31
0
  0
LINE
  8
1
 62
7
 10
68.34443307971078
 20
1017.402276643999
 30
0
 11
68.84443307971078
 21
1017.902276643999
 31
0
  0
LINE
  8
1
 62
7
 10
68.34443307971078
 20
1009.802276643999
 30
0
 11
68.84443307971078
 21
1009.302276643999
 31
0
  0
LINE
  8
1
 62
7
 10
157.947123056944
 20
1009.802276643999
 30
0
 11
158.447123056944
 21
1009.302276643999
 31
0
  0
LINE
  8
1
 62
7
 10
165.447123056944
 20
1009.302276643999
 30
0
 11
165.947123056944
 21
1009.802276643999
 31
0
  0
LINE
  8
1
 62
7
 10
165.947123056944
 20
1017.402276643999
 30
0
 11
165.447123056944
 21
1017.902276643999
 31
0
  0
LINE
  8
1
 62
7
 10
158.447123056944
 20
1017.902276643999
 30
0
 11
157.947123056944
 21
1017.402276643999
 31
0
  0
LINE
  8
1
 62
7
 10
158.447123056944
 20
1019.202276643999
 30
0
 11
158.947123056944
 21
1018.702276643999
 31
0
  0
LINE
  8
1
 62
7
 10
165.947123056944
 20
1018.702276643999
 30
0
 11
166.447123056944
 21
1019.202276643999
 31
0
  0
LINE
  8
1
 62
7
 10
166.447123056944
 20
1035.402276643999
 30
0
 11
165.947123056944
 21
1035.902276643999
 31
0
  0
LINE
  8
1
 62
7
 10
158.947123056944
 20
1035.902276643999
 30
0
 11
158.447123056944
 21
1035.402276643999
 31
0
  0
LINE
  8
1
 62
7
 10
157.947123056944
 20
1037.202276643999
 30
0
 11
158.447123056944
 21
1036.702276643999
 31
0
  0
LINE
  8
1
 62
7
 10
165.447123056944
 20
1036.702276643999
 30
0
 11
165.947123056944
 21
1037.202276643999
 31
0
  0
LINE
  8
1
 62
7
 10
165.947123056944
 20
1044.802276643999
 30
0
 11
165.447123056944
 21
1045.302276643999
 31
0
  0
LINE
  8
1
 62
7
 10
158.447123056944
 20
1045.302276643999
 30
0
 11
157.947123056944
 21
1044.802276643999
 31
0
  0
LINE
  8
1
 62
7
 10
68.84443307971078
 20
1045.302276643999
 30
0
 11
68.34443307971078
 21
1044.802276643999
 31
0
  0
LINE
  8
1
 62
7
 10
68.84443307971078
 20
1036.702276643999
 30
0
 11
68.34443307971078
 21
1037.202276643999
 31
0
  0
LINE
  8
1
 62
7
 10
68.84443307971078
 20
1035.902276643999
 30
0
 11
68.34443307971078
 21
1035.402276643999
 31
0
  0
LINE
  8
1
 62
7
 10
142.8444330797108
 20
1035.902276643999
 30
0
 11
143.3444330797108
 21
1035.402276643999
 31
0
  0
LINE
  8
1
 62
7
 10
142.8444330797108
 20
1036.702276643999
 30
0
 11
143.3444330797108
 21
1037.202276643999
 31
0
  0
LINE
  8
1
 62
7
 10
143.3444330797108
 20
1044.802276643999
 30
0
 11
142.8444330797108
 21
1045.302276643999
 31
0
  0
LINE
  8
1
 62
3
  6
CENTER
 10
133.8444330797108
 20
1041.802276643999
 30
0
 11
135.4197357578958
 21
1041.802276643999
 31
0
  0
LINE
  8
1
 62
3
  6
CENTER
 10
80.84443307971078
 20
1022.6822809499
 30
0
 11
80.84443307971078
 21
1031.74713506074
 31
0
  0
LINE
  8
1
 62
3
  6
CENTER
 10
80.84443307971078
 20
1037.1822809499
 30
0
 11
80.84443307971078
 21
1046.65866479544
 31
0
  0
LINE
  8
1
 62
3
  6
CENTER
 10
76.05126060685581
 20
1041.802276643999
 30
0
 11
85.41973575789569
 21
1041.802276643999
 31
0
  0
LINE
  8
1
 62
3
  6
CENTER
 10
105.8444330797108
 20
1022.6822809499
 30
0
 11
105.8444330797108
 21
1031.74713506074
 31
0
  0
LINE
  8
1
 62
3
  6
CENTER
 10
105.8444330797108
 20
1037.1822809499
 30
0
 11
105.8444330797108
 21
1046.65866479544
 31
0
  0
LINE
  8
1
 62
3
  6
CENTER
 10
101.0512606068558
 20
1041.802276643999
 30
0
 11
110.4197357578957
 21
1041.802276643999
 31
0
  0
LINE
  8
1
 62
3
  6
CENTER
 10
130.8444330797108
 20
1022.6822809499
 30
0
 11
130.8444330797108
 21
1031.74713506074
 31
0
  0
LINE
  8
1
 62
3
  6
CENTER
 10
130.8444330797108
 20
1037.1822809499
 30
0
 11
130.8444330797108
 21
1046.65866479544
 31
0
  0
LINE
  8
1
 62
3
  6
CENTER
 10
126.0512606068558
 20
1041.802276643999
 30
0
 11
133.8444330797108
 21
1041.802276643999
 31
0
  0
LINE
  8
1
 62
7
 10
142.8444330797108
 20
1035.902276643999
 30
0
 11
121.4149995002973
 21
1035.902276643999
 31
0
  0
LINE
  8
1
 62
7
 10
143.3444330797108
 20
1035.402276643999
 30
0
 11
143.3444330797108
 21
1019.202276643999
 31
0
  0
LINE
  8
1
 62
7
 10
160.2258027133844
 20
1035.902276643999
 30
0
 11
158.947123056944
 21
1035.902276643999
 31
0
  0
LINE
  8
1
 62
7
 10
158.447123056944
 20
1035.402276643999
 30
0
 11
158.447123056944
 21
1019.202276643999
 31
0
  0
LINE
  8
1
 62
7
 10
166.447123056944
 20
1035.402276643999
 30
0
 11
166.447123056944
 21
1019.202276643999
 31
0
  0
LINE
  8
1
 62
7
 10
163.6684434005036
 20
1035.902276643999
 30
0
 11
165.947123056944
 21
1035.902276643999
 31
0
  0
LINE
  8
1
 62
7
 10
163.6684434005036
 20
1036.702276643999
 30
0
 11
165.447123056944
 21
1036.702276643999
 31
0
  0
LINE
  8
1
 62
7
 10
165.947123056944
 20
1044.802276643999
 30
0
 11
165.947123056944
 21
1037.202276643999
 31
0
  0
LINE
  8
1
 62
7
 10
158.447123056944
 20
1045.302276643999
 30
0
 11
165.447123056944
 21
1045.302276643999
 31
0
  0
LINE
  8
1
 62
7
 10
157.947123056944
 20
1044.802276643999
 30
0
 11
157.947123056944
 21
1037.202276643999
 31
0
  0
LINE
  8
1
 62
7
 10
160.2258027133844
 20
1036.702276643999
 30
0
 11
158.447123056944
 21
1036.702276643999
 31
0
  0
LINE
  8
1
 62
4
  6
CENTER
 10
156.6000710282679
 20
1036.302276643999
 30
0
 11
167.1915273677253
 21
1036.302276643999
 31
0
  0
LINE
  8
1
 62
7
 10
70.34443307971078
 20
1045.302276643999
 30
0
 11
70.34443307971078
 21
1044.802276643999
 31
0
  0
LINE
  8
1
 62
7
 10
70.34443307971078
 20
1045.302276643999
 30
0
 11
68.84443307971078
 21
1045.302276643999
 31
0
  0
LINE
  8
1
 62
7
 10
141.3444330797108
 20
1045.302276643999
 30
0
 11
141.3444330797108
 21
1044.802276643999
 31
0
  0
LINE
  8
1
 62
7
 10
122.9070629923607
 20
1045.302276643999
 30
0
 11
142.8444330797108
 21
1045.302276643999
 31
0
  0
LINE
  8
1
 62
7
 10
141.3444330797108
 20
1037.202276643999
 30
0
 11
141.3444330797108
 21
1036.702276643999
 31
0
  0
LINE
  8
1
 62
7
 10
121.5419836272814
 20
1036.702276643999
 30
0
 11
142.8444330797108
 21
1036.702276643999
 31
0
  0
LINE
  8
1
 62
7
 10
141.3444330797108
 20
1044.802276643999
 30
0
 11
122.8276979129957
 21
1044.802276643999
 31
0
  0
LINE
  8
1
 62
7
 10
70.34443307971078
 20
1037.202276643999
 30
0
 11
70.34443307971078
 21
1036.702276643999
 31
0
  0
LINE
  8
1
 62
7
 10
70.34443307971078
 20
1036.702276643999
 30
0
 11
68.84443307971078
 21
1036.702276643999
 31
0
  0
LINE
  8
1
 62
7
 10
70.34443307971078
 20
1037.202276643999
 30
0
 11
118.3800179926574
 21
1037.202276643999
 31
0
  0
LINE
  8
1
 62
7
 10
68.84443307971078
 20
1035.902276643999
 30
0
 11
118.1736687863082
 21
1035.902276643999
 31
0
  0
LINE
  8
1
 62
4
  6
CENTER
 10
144.928657102278
 20
1036.302276643999
 30
0
 11
65.89374343088547
 21
1036.302276643999
 31
0
  0
LINE
  8
1
 62
4
  6
CENTER
 10
156.630556269432
 20
1027.302276643999
 30
0
 11
169.8063805645033
 21
1027.302276643999
 31
0
  0
LINE
  8
1
 62
7
 10
143.3444330797108
 20
1027.902276643999
 30
0
 11
144.8444330797108
 21
1027.902276643999
 31
0
  0
LINE
  8
1
 62
7
 10
144.8444330797108
 20
1027.902276643999
 30
0
 11
145.3444330797108
 21
1028.402276643999
 31
0
  0
LINE
  8
1
 62
7
 10
145.3444330797108
 20
1028.402276643999
 30
0
 11
145.3444330797108
 21
1034.902276643999
 31
0
  0
LINE
  8
1
 62
7
 10
145.3444330797108
 20
1034.902276643999
 30
0
 11
144.8444330797108
 21
1035.402276643999
 31
0
  0
LINE
  8
1
 62
7
 10
144.8444330797108
 20
1035.402276643999
 30
0
 11
143.3444330797108
 21
1035.402276643999
 31
0
  0
LINE
  8
1
 62
7
 10
144.8444330797108
 20
1035.402276643999
 30
0
 11
144.8444330797108
 21
1027.902276643999
 31
0
  0
LINE
  8
1
 62
7
 10
143.3444330797108
 20
1019.202276643999
 30
0
 11
144.8444330797108
 21
1019.202276643999
 31
0
  0
LINE
  8
1
 62
7
 10
144.8444330797108
 20
1019.202276643999
 30
0
 11
145.3444330797108
 21
1019.702276643999
 31
0
  0
LINE
  8
1
 62
7
 10
145.3444330797108
 20
1019.702276643999
 30
0
 11
145.3444330797108
 21
1026.202276643999
 31
0
  0
LINE
  8
1
 62
7
 10
145.3444330797108
 20
1026.202276643999
 30
0
 11
144.8444330797108
 21
1026.702276643999
 31
0
  0
LINE
  8
1
 62
7
 10
144.8444330797108
 20
1026.702276643999
 30
0
 11
143.3444330797108
 21
1026.702276643999
 31
0
  0
LINE
  8
1
 62
7
 10
144.8444330797108
 20
1026.702276643999
 30
0
 11
144.8444330797108
 21
1019.202276643999
 31
0
  0
LINE
  8
1
 62
7
 10
143.3444330797108
 20
1009.852276643999
 30
0
 11
144.8444330797108
 21
1009.852276643999
 31
0
  0
LINE
  8
1
 62
7
 10
144.8444330797108
 20
1009.852276643999
 30
0
 11
145.3444330797108
 21
1010.352276643999
 31
0
  0
LINE
  8
1
 62
7
 10
145.3444330797108
 20
1010.352276643999
 30
0
 11
145.3444330797108
 21
1016.852276643999
 31
0
  0
LINE
  8
1
 62
7
 10
144.8444330797108
 20
1017.352276643999
 30
0
 11
143.3444330797108
 21
1017.352276643999
 31
0
  0
LINE
  8
1
 62
7
 10
144.8444330797108
 20
1017.352276643999
 30
0
 11
144.8444330797108
 21
1009.852276643999
 31
0
  0
LINE
  8
1
 62
7
 10
145.3444330797108
 20
1016.852276643999
 30
0
 11
144.8444330797108
 21
1017.352276643999
 31
0
  0
LINE
  8
1
 62
7
 10
143.3444330797108
 20
1009.802276643999
 30
0
 11
143.3444330797108
 21
1017.402276643999
 31
0
  0
LINE
  8
1
 62
7
 10
143.3444330797108
 20
1037.252276643999
 30
0
 11
144.8444330797108
 21
1037.252276643999
 31
0
  0
LINE
  8
1
 62
7
 10
144.8444330797108
 20
1037.252276643999
 30
0
 11
145.3444330797108
 21
1037.752276643999
 31
0
  0
LINE
  8
1
 62
7
 10
145.3444330797108
 20
1037.752276643999
 30
0
 11
145.3444330797108
 21
1044.252276643999
 31
0
  0
LINE
  8
1
 62
7
 10
144.8444330797108
 20
1044.752276643999
 30
0
 11
143.3444330797108
 21
1044.752276643999
 31
0
  0
LINE
  8
1
 62
7
 10
144.8444330797108
 20
1044.752276643999
 30
0
 11
144.8444330797108
 21
1037.252276643999
 31
0
  0
LINE
  8
1
 62
7
 10
145.3444330797108
 20
1044.252276643999
 30
0
 11
144.8444330797108
 21
1044.752276643999
 31
0
  0
LINE
  8
1
 62
7
 10
143.3444330797108
 20
1037.202276643999
 30
0
 11
143.3444330797108
 21
1044.802276643999
 31
0
  0
LINE
  8
1
 62
7
 10
68.34443307971078
 20
1037.202276643999
 30
0
 11
68.34443307971077
 21
1037.452276643999
 31
0
  0
LINE
  8
1
 62
7
 10
68.34443307971078
 20
1019.202276643999
 30
0
 11
68.34443307971078
 21
1035.402276643999
 31
0
  0
LINE
  8
1
 62
7
 10
66.84443307971077
 20
1027.902276643999
 30
0
 11
68.34443307971077
 21
1027.902276643999
 31
0
  0
LINE
  8
1
 62
7
 10
66.34443307971077
 20
1028.402276643999
 30
0
 11
66.84443307971077
 21
1027.902276643999
 31
0
  0
LINE
  8
1
 62
7
 10
66.34443307971077
 20
1034.902276643999
 30
0
 11
66.34443307971077
 21
1028.402276643999
 31
0
  0
LINE
  8
1
 62
7
 10
66.84443307971077
 20
1035.402276643999
 30
0
 11
66.34443307971077
 21
1034.902276643999
 31
0
  0
LINE
  8
1
 62
7
 10
68.34443307971078
 20
1035.402276643999
 30
0
 11
66.84443307971077
 21
1035.402276643999
 31
0
  0
LINE
  8
1
 62
7
 10
66.84443307971077
 20
1027.902276643999
 30
0
 11
66.84443307971077
 21
1035.402276643999
 31
0
  0
LINE
  8
1
 62
7
 10
66.84443307971077
 20
1019.202276643999
 30
0
 11
68.34443307971078
 21
1019.202276643999
 31
0
  0
LINE
  8
1
 62
7
 10
66.34443307971077
 20
1019.702276643999
 30
0
 11
66.84443307971077
 21
1019.202276643999
 31
0
  0
LINE
  8
1
 62
7
 10
66.34443307971077
 20
1026.202276643999
 30
0
 11
66.34443307971077
 21
1019.702276643999
 31
0
  0
LINE
  8
1
 62
7
 10
66.84443307971077
 20
1026.702276643999
 30
0
 11
66.34443307971077
 21
1026.202276643999
 31
0
  0
LINE
  8
1
 62
7
 10
68.34443307971077
 20
1026.702276643999
 30
0
 11
66.84443307971077
 21
1026.702276643999
 31
0
  0
LINE
  8
1
 62
7
 10
66.84443307971077
 20
1019.202276643999
 30
0
 11
66.84443307971077
 21
1026.702276643999
 31
0
  0
LINE
  8
1
 62
7
 10
66.84443307971077
 20
1009.852276643999
 30
0
 11
68.34443307971077
 21
1009.852276643999
 31
0
  0
LINE
  8
1
 62
7
 10
66.34443307971077
 20
1010.352276643999
 30
0
 11
66.84443307971077
 21
1009.852276643999
 31
0
  0
LINE
  8
1
 62
7
 10
66.34443307971077
 20
1016.852276643999
 30
0
 11
66.34443307971077
 21
1010.352276643999
 31
0
  0
LINE
  8
1
 62
7
 10
68.34443307971077
 20
1017.352276643999
 30
0
 11
66.84443307971077
 21
1017.352276643999
 31
0
  0
LINE
  8
1
 62
7
 10
66.84443307971077
 20
1009.852276643999
 30
0
 11
66.84443307971077
 21
1017.352276643999
 31
0
  0
LINE
  8
1
 62
7
 10
66.84443307971077
 20
1017.352276643999
 30
0
 11
66.34443307971077
 21
1016.852276643999
 31
0
  0
LINE
  8
1
 62
7
 10
68.34443307971078
 20
1017.402276643999
 30
0
 11
68.34443307971078
 21
1009.802276643999
 31
0
  0
LINE
  8
1
 62
7
 10
66.84443307971077
 20
1037.252276643999
 30
0
 11
68.34443307971077
 21
1037.252276643999
 31
0
  0
LINE
  8
1
 62
7
 10
66.34443307971077
 20
1037.752276643999
 30
0
 11
66.84443307971077
 21
1037.252276643999
 31
0
  0
LINE
  8
1
 62
7
 10
66.34443307971077
 20
1044.252276643999
 30
0
 11
66.34443307971077
 21
1037.752276643999
 31
0
  0
LINE
  8
1
 62
7
 10
68.34443307971077
 20
1044.752276643999
 30
0
 11
66.84443307971077
 21
1044.752276643999
 31
0
  0
LINE
  8
1
 62
7
 10
66.84443307971077
 20
1037.252276643999
 30
0
 11
66.84443307971077
 21
1044.752276643999
 31
0
  0
LINE
  8
1
 62
7
 10
66.84443307971077
 20
1044.752276643999
 30
0
 11
66.34443307971077
 21
1044.252276643999
 31
0
  0
LINE
  8
1
 62
7
 10
68.34443307971078
 20
1044.802276643999
 30
0
 11
68.34443307971078
 21
1037.202276643999
 31
0
  0
LINE
  8
1
 62
4
  6
CENTER
 10
185.7251922633053
 20
1018.302276643999
 30
0
 11
175.1337359238479
 21
1018.302276643999
 31
0
  0
LINE
  8
1
 62
7
 10
176.980787952524
 20
1017.902276643999
 30
0
 11
178.7594676089644
 21
1017.902276643999
 31
0
  0
LINE
  8
1
 62
7
 10
176.480787952524
 20
1017.402276643999
 30
0
 11
176.480787952524
 21
1009.802276643999
 31
0
  0
LINE
  8
1
 62
7
 10
183.980787952524
 20
1009.302276643999
 30
0
 11
176.980787952524
 21
1009.302276643999
 31
0
  0
LINE
  8
1
 62
7
 10
184.480787952524
 20
1017.402276643999
 30
0
 11
184.480787952524
 21
1009.802276643999
 31
0
  0
LINE
  8
1
 62
7
 10
183.980787952524
 20
1017.902276643999
 30
0
 11
182.2021082960836
 21
1017.902276643999
 31
0
  0
LINE
  8
1
 62
7
 10
184.480787952524
 20
1018.702276643999
 30
0
 11
182.2021082960836
 21
1018.702276643999
 31
0
  0
LINE
  8
1
 62
7
 10
177.480787952524
 20
1018.702276643999
 30
0
 11
178.7594676089644
 21
1018.702276643999
 31
0
  0
LINE
  8
1
 62
7
 10
176.480787952524
 20
1009.802276643999
 30
0
 11
176.980787952524
 21
1009.302276643999
 31
0
  0
LINE
  8
1
 62
7
 10
183.980787952524
 20
1009.302276643999
 30
0
 11
184.480787952524
 21
1009.802276643999
 31
0
  0
LINE
  8
1
 62
7
 10
184.480787952524
 20
1017.402276643999
 30
0
 11
183.980787952524
 21
1017.902276643999
 31
0
  0
LINE
  8
1
 62
7
 10
176.980787952524
 20
1017.902276643999
 30
0
 11
176.480787952524
 21
1017.402276643999
 31
0
  0
LINE
  8
1
 62
7
 10
176.980787952524
 20
1019.202276643999
 30
0
 11
177.480787952524
 21
1018.702276643999
 31
0
  0
LINE
  8
1
 62
7
 10
184.480787952524
 20
1018.702276643999
 30
0
 11
184.980787952524
 21
1019.202276643999
 31
0
  0
LINE
  8
1
 62
7
 10
184.980787952524
 20
1035.402276643999
 30
0
 11
184.480787952524
 21
1035.902276643999
 31
0
  0
LINE
  8
1
 62
7
 10
177.480787952524
 20
1035.902276643999
 30
0
 11
176.980787952524
 21
1035.402276643999
 31
0
  0
LINE
  8
1
 62
7
 10
176.480787952524
 20
1037.202276643999
 30
0
 11
176.980787952524
 21
1036.702276643999
 31
0
  0
LINE
  8
1
 62
7
 10
183.980787952524
 20
1036.702276643999
 30
0
 11
184.480787952524
 21
1037.202276643999
 31
0
  0
LINE
  8
1
 62
7
 10
184.480787952524
 20
1044.802276643999
 30
0
 11
183.980787952524
 21
1045.302276643999
 31
0
  0
LINE
  8
1
 62
7
 10
176.980787952524
 20
1045.302276643999
 30
0
 11
176.480787952524
 21
1044.802276643999
 31
0
  0
LINE
  8
1
 62
7
 10
176.980787952524
 20
1035.402276643999
 30
0
 11
176.980787952524
 21
1019.202276643999
 31
0
  0
LINE
  8
1
 62
7
 10
184.980787952524
 20
1035.402276643999
 30
0
 11
184.980787952524
 21
1019.202276643999
 31
0
  0
LINE
  8
1
 62
7
 10
182.2021082960836
 20
1035.902276643999
 30
0
 11
184.480787952524
 21
1035.902276643999
 31
0
  0
LINE
  8
1
 62
7
 10
182.2021082960836
 20
1036.702276643999
 30
0
 11
183.980787952524
 21
1036.702276643999
 31
0
  0
LINE
  8
1
 62
7
 10
184.480787952524
 20
1044.802276643999
 30
0
 11
184.480787952524
 21
1037.202276643999
 31
0
  0
LINE
  8
1
 62
7
 10
176.980787952524
 20
1045.302276643999
 30
0
 11
183.980787952524
 21
1045.302276643999
 31
0
  0
LINE
  8
1
 62
7
 10
176.480787952524
 20
1044.802276643999
 30
0
 11
176.480787952524
 21
1037.202276643999
 31
0
  0
LINE
  8
1
 62
7
 10
178.7594676089644
 20
1036.702276643999
 30
0
 11
176.980787952524
 21
1036.702276643999
 31
0
  0
LINE
  8
1
 62
4
  6
CENTER
 10
175.1337359238479
 20
1036.302276643999
 30
0
 11
185.7251922633053
 21
1036.302276643999
 31
0
  0
LINE
  8
1
 62
3
 10
184.980787952524
 20
1029.302276643999
 30
0
 11
180.080787952524
 21
1029.302276643999
 31
0
  0
LINE
  8
1
 62
3
 10
184.980787952524
 20
1025.302276643999
 30
0
 11
180.080787952524
 21
1025.302276643999
 31
0
  0
LINE
  8
1
 62
4
  6
CENTER
 10
185.960787952524
 20
1027.302276643999
 30
0
 11
175.614051042732
 21
1027.302276643999
 31
0
  0
LINE
  8
1
 62
7
 10
184.980787952524
 20
1028.902276643999
 30
0
 11
180.080787952524
 21
1028.902276643999
 31
0
  0
LINE
  8
1
 62
7
 10
184.980787952524
 20
1025.702276643999
 30
0
 11
180.080787952524
 21
1025.702276643999
 31
0
  0
LINE
  8
1
 62
7
 10
176.980787952524
 20
1030.302276643999
 30
0
 11
180.080787952524
 21
1030.302276643999
 31
0
  0
LINE
  8
1
 62
7
 10
180.080787952524
 20
1030.302276643999
 30
0
 11
180.080787952524
 21
1024.302276643999
 31
0
  0
LINE
  8
1
 62
7
 10
180.080787952524
 20
1024.302276643999
 30
0
 11
176.980787952524
 21
1024.302276643999
 31
0
  0
LINE
  8
1
 62
3
 10
176.480787952524
 20
1010.802276643999
 30
0
 11
181.380787952524
 21
1010.802276643999
 31
0
  0
LINE
  8
1
 62
3
 10
176.480787952524
 20
1014.802276643999
 30
0
 11
181.380787952524
 21
1014.802276643999
 31
0
  0
LINE
  8
1
 62
3
  6
CENTER
 10
185.460787952524
 20
1012.802276643999
 30
0
 11
175.114051042732
 21
1012.802276643999
 31
0
  0
LINE
  8
1
 62
7
 10
176.480787952524
 20
1011.202276643999
 30
0
 11
181.380787952524
 21
1011.202276643999
 31
0
  0
LINE
  8
1
 62
7
 10
176.480787952524
 20
1014.402276643999
 30
0
 11
181.380787952524
 21
1014.402276643999
 31
0
  0
LINE
  8
1
 62
7
 10
184.480787952524
 20
1009.802276643999
 30
0
 11
181.380787952524
 21
1009.802276643999
 31
0
  0
LINE
  8
1
 62
7
 10
181.380787952524
 20
1009.802276643999
 30
0
 11
181.380787952524
 21
1015.802276643999
 31
0
  0
LINE
  8
1
 62
7
 10
181.380787952524
 20
1015.802276643999
 30
0
 11
184.480787952524
 21
1015.802276643999
 31
0
  0
LINE
  8
1
 62
3
 10
181.380787952524
 20
1043.802276643999
 30
0
 11
176.480787952524
 21
1043.802276643999
 31
0
  0
LINE
  8
1
 62
3
 10
181.380787952524
 20
1039.802276643999
 30
0
 11
176.480787952524
 21
1039.802276643999
 31
0
  0
LINE
  8
1
 62
3
  6
CENTER
 10
175.114051042732
 20
1041.802276643999
 30
0
 11
185.460787952524
 21
1041.802276643999
 31
0
  0
LINE
  8
1
 62
7
 10
181.380787952524
 20
1043.402276643999
 30
0
 11
176.480787952524
 21
1043.402276643999
 31
0
  0
LINE
  8
1
 62
7
 10
181.380787952524
 20
1040.202276643999
 30
0
 11
176.480787952524
 21
1040.202276643999
 31
0
  0
LINE
  8
1
 62
7
 10
181.380787952524
 20
1038.802276643999
 30
0
 11
181.380787952524
 21
1044.802276643999
 31
0
  0
LINE
  8
1
 62
7
 10
184.480787952524
 20
1038.802276643999
 30
0
 11
181.380787952524
 21
1038.802276643999
 31
0
  0
LINE
  8
1
 62
7
 10
181.380787952524
 20
1044.802276643999
 30
0
 11
184.480787952524
 21
1044.802276643999
 31
0
  0
LINE
  8
1
 62
3
  6
DASHDOT
 10
180.480787952524
 20
1021.34656942202
 30
0
 11
180.480787952524
 21
1014.53222111305
 31
0
  0
LINE
  8
1
 62
7
 10
182.2021082960836
 20
1017.902276643999
 30
0
 11
180.980787952524
 21
1016.680956300439
 31
0
  0
LINE
  8
1
 62
7
 10
180.980787952524
 20
1016.680956300439
 30
0
 11
180.980787952524
 21
1016.652276643999
 31
0
  0
LINE
  8
1
 62
7
 10
179.980787952524
 20
1016.652276643999
 30
0
 11
179.980787952524
 21
1016.680956300439
 31
0
  0
LINE
  8
1
 62
7
 10
179.980787952524
 20
1016.680956300439
 30
0
 11
178.7695895420525
 21
1017.892154710911
 31
0
  0
LINE
  8
1
 62
7
 10
178.7594676089644
 20
1018.702276643999
 30
0
 11
179.980787952524
 21
1019.923596987559
 31
0
  0
LINE
  8
1
 62
7
 10
179.980787952524
 20
1019.923596987559
 30
0
 11
179.980787952524
 21
1020.602276643999
 31
0
  0
LINE
  8
1
 62
7
 10
179.980787952524
 20
1020.602276643999
 30
0
 11
180.980787952524
 21
1020.602276643999
 31
0
  0
LINE
  8
1
 62
7
 10
180.980787952524
 20
1020.602276643999
 30
0
 11
180.980787952524
 21
1019.923596987559
 31
0
  0
LINE
  8
1
 62
7
 10
180.980787952524
 20
1019.923596987559
 30
0
 11
182.1919863629955
 21
1018.712398577087
 31
0
  0
LINE
  8
1
 62
7
 10
180.4878590203358
 20
1019.70941913856
 30
0
 11
180.1802675705197
 21
1020.017010588376
 31
0
  0
LINE
  8
1
 62
7
 10
180.1095568924011
 20
1020.017010588376
 30
0
 11
178.7660540081466
 21
1018.673507704122
 31
0
  0
LINE
  8
1
 62
7
 10
178.7660540081466
 20
1018.602797026003
 30
0
 11
179.0736454579627
 21
1018.295205576187
 31
0
  0
LINE
  8
1
 62
7
 10
181.8879304470853
 20
1018.309347711811
 30
0
 11
182.1955218969013
 21
1018.001756261995
 31
0
  0
LINE
  8
1
 62
7
 10
182.1955218969014
 20
1017.931045583877
 30
0
 11
180.8520190126469
 21
1016.587542699622
 31
0
  0
LINE
  8
1
 62
7
 10
180.7813083345283
 20
1016.587542699622
 30
0
 11
180.4737168847122
 21
1016.895134149438
 31
0
  0
LINE
  8
1
 62
7
 10
180.980787952524
 20
1019.923596987559
 30
0
 11
180.8909098856121
 21
1020.01347505447
 31
0
  0
LINE
  8
1
 62
7
 10
180.791914936246
 20
1020.01347505447
 30
0
 11
178.7695895420526
 21
1017.991149660277
 31
0
  0
LINE
  8
1
 62
7
 10
180.0706660194359
 20
1016.591078233528
 30
0
 11
179.980787952524
 21
1016.680956300439
 31
0
  0
LINE
  8
1
 62
7
 10
180.1095568924011
 20
1020.017010588376
 30
0
 11
180.1802675705197
 21
1020.017010588376
 31
0
  0
LINE
  8
1
 62
7
 10
178.7660540081466
 20
1018.602797026003
 30
0
 11
178.7660540081466
 21
1018.673507704122
 31
0
  0
LINE
  8
1
 62
7
 10
182.1955218969014
 20
1017.931045583877
 30
0
 11
182.1955218969013
 21
1018.001756261995
 31
0
  0
LINE
  8
1
 62
7
 10
180.7813083345283
 20
1016.587542699622
 30
0
 11
180.8520190126469
 21
1016.587542699622
 31
0
  0
LINE
  8
1
 62
7
 10
180.791914936246
 20
1020.01347505447
 30
0
 11
180.8909098856121
 21
1020.01347505447
 31
0
  0
LINE
  8
1
 62
7
 10
180.0706660194359
 20
1016.591078233528
 30
0
 11
180.169660968802
 21
1016.591078233528
 31
0
  0
LINE
  8
1
 62
7
 10
182.1919863629955
 20
1018.712398577087
 30
0
 11
182.1919863629954
 21
1018.613403627721
 31
0
  0
LINE
  8
1
 62
7
 10
182.1919863629955
 20
1018.712398577087
 30
0
 11
182.2021082960836
 21
1018.702276643999
 31
0
  0
LINE
  8
1
 62
7
 10
182.1919863629954
 20
1018.613403627721
 30
0
 11
180.169660968802
 21
1016.591078233528
 31
0
  0
LINE
  8
1
 62
7
 10
178.7695895420526
 20
1017.991149660277
 30
0
 11
178.7695895420525
 21
1017.892154710911
 31
0
  0
LINE
  8
1
 62
7
 10
178.7695895420525
 20
1017.892154710911
 30
0
 11
178.7594676089644
 21
1017.902276643999
 31
0
  0
LINE
  8
1
 62
7
 10
178.7695895420525
 20
1017.892154710911
 30
0
 11
180.8909098856121
 21
1020.01347505447
 31
0
  0
LINE
  8
1
 62
7
 10
180.0706660194359
 20
1016.591078233528
 30
0
 11
182.1919863629955
 21
1018.712398577087
 31
0
  0
LINE
  8
1
 62
7
 10
182.1955218969013
 20
1018.001756261995
 30
0
 11
180.7813083345283
 21
1016.587542699622
 31
0
  0
LINE
  8
1
 62
7
 10
178.7660540081466
 20
1018.602797026003
 30
0
 11
180.1802675705197
 21
1020.017010588376
 31
0
  0
LINE
  8
1
 62
7
 10
180.980787952524
 20
1037.923596987559
 30
0
 11
182.2021082960836
 21
1036.702276643999
 31
0
  0
LINE
  8
1
 62
7
 10
180.980787952524
 20
1037.952276643999
 30
0
 11
180.980787952524
 21
1037.923596987559
 31
0
  0
LINE
  8
1
 62
7
 10
179.980787952524
 20
1037.923596987559
 30
0
 11
179.980787952524
 21
1037.952276643999
 31
0
  0
LINE
  8
1
 62
7
 10
178.7695895420525
 20
1036.712398577087
 30
0
 11
179.980787952524
 21
1037.923596987559
 31
0
  0
LINE
  8
1
 62
7
 10
179.980787952524
 20
1034.680956300439
 30
0
 11
178.7594676089644
 21
1035.902276643999
 31
0
  0
LINE
  8
1
 62
7
 10
179.980787952524
 20
1034.002276643999
 30
0
 11
179.980787952524
 21
1034.680956300439
 31
0
  0
LINE
  8
1
 62
7
 10
180.980787952524
 20
1034.002276643999
 30
0
 11
179.980787952524
 21
1034.002276643999
 31
0
  0
LINE
  8
1
 62
7
 10
180.980787952524
 20
1034.680956300439
 30
0
 11
180.980787952524
 21
1034.002276643999
 31
0
  0
LINE
  8
1
 62
7
 10
182.1919863629955
 20
1035.892154710911
 30
0
 11
180.980787952524
 21
1034.680956300439
 31
0
  0
LINE
  8
1
 62
7
 10
180.1802675705197
 20
1034.587542699622
 30
0
 11
180.4878590203358
 21
1034.895134149438
 31
0
  0
LINE
  8
1
 62
7
 10
178.7660540081466
 20
1035.931045583876
 30
0
 11
180.1095568924011
 21
1034.587542699622
 31
0
  0
LINE
  8
1
 62
7
 10
179.0736454579627
 20
1036.309347711811
 30
0
 11
178.7660540081466
 21
1036.001756261995
 31
0
  0
LINE
  8
1
 62
7
 10
182.1955218969013
 20
1036.602797026003
 30
0
 11
181.8879304470853
 21
1036.295205576187
 31
0
  0
LINE
  8
1
 62
7
 10
180.8520190126469
 20
1038.017010588376
 30
0
 11
182.1955218969014
 21
1036.673507704121
 31
0
  0
LINE
  8
1
 62
7
 10
180.4737168847122
 20
1037.70941913856
 30
0
 11
180.7813083345283
 21
1038.017010588376
 31
0
  0
LINE
  8
1
 62
7
 10
180.8909098856121
 20
1034.591078233528
 30
0
 11
180.980787952524
 21
1034.680956300439
 31
0
  0
LINE
  8
1
 62
7
 10
178.7695895420526
 20
1036.613403627721
 30
0
 11
180.791914936246
 21
1034.591078233528
 31
0
  0
LINE
  8
1
 62
7
 10
179.980787952524
 20
1037.923596987559
 30
0
 11
180.0706660194359
 21
1038.01347505447
 31
0
  0
LINE
  8
1
 62
7
 10
180.1802675705197
 20
1034.587542699622
 30
0
 11
180.1095568924011
 21
1034.587542699622
 31
0
  0
LINE
  8
1
 62
7
 10
178.7660540081466
 20
1035.931045583876
 30
0
 11
178.7660540081466
 21
1036.001756261995
 31
0
  0
LINE
  8
1
 62
7
 10
182.1955218969013
 20
1036.602797026003
 30
0
 11
182.1955218969014
 21
1036.673507704121
 31
0
  0
LINE
  8
1
 62
7
 10
180.8520190126469
 20
1038.017010588376
 30
0
 11
180.7813083345283
 21
1038.017010588376
 31
0
  0
LINE
  8
1
 62
7
 10
180.8909098856121
 20
1034.591078233528
 30
0
 11
180.791914936246
 21
1034.591078233528
 31
0
  0
LINE
  8
1
 62
7
 10
180.169660968802
 20
1038.01347505447
 30
0
 11
180.0706660194359
 21
1038.01347505447
 31
0
  0
LINE
  8
1
 62
7
 10
182.1919863629954
 20
1035.991149660277
 30
0
 11
182.1919863629955
 21
1035.892154710911
 31
0
  0
LINE
  8
1
 62
7
 10
182.2021082960836
 20
1035.902276643999
 30
0
 11
182.1919863629955
 21
1035.892154710911
 31
0
  0
LINE
  8
1
 62
7
 10
180.169660968802
 20
1038.01347505447
 30
0
 11
182.1919863629954
 21
1035.991149660277
 31
0
  0
LINE
  8
1
 62
7
 10
178.7695895420525
 20
1036.712398577087
 30
0
 11
178.7695895420526
 21
1036.613403627721
 31
0
  0
LINE
  8
1
 62
7
 10
178.7594676089644
 20
1036.702276643999
 30
0
 11
178.7695895420525
 21
1036.712398577087
 31
0
  0
LINE
  8
1
 62
7
 10
180.8909098856121
 20
1034.591078233528
 30
0
 11
178.7695895420525
 21
1036.712398577087
 31
0
  0
LINE
  8
1
 62
7
 10
182.1919863629955
 20
1035.892154710911
 30
0
 11
180.0706660194359
 21
1038.01347505447
 31
0
  0
LINE
  8
1
 62
7
 10
180.7813083345283
 20
1038.017010588376
 30
0
 11
182.1955218969013
 21
1036.602797026003
 31
0
  0
LINE
  8
1
 62
7
 10
180.1802675705197
 20
1034.587542699622
 30
0
 11
178.7660540081466
 21
1036.001756261995
 31
0
  0
LINE
  8
1
 62
7
 10
178.7594676089644
 20
1035.902276643999
 30
0
 11
177.480787952524
 21
1035.902276643999
 31
0
  0
LINE
  8
1
 62
7
 10
160.2359246464725
 20
1036.712398577087
 30
0
 11
160.9193843782153
 21
1037.39585830883
 31
0
  0
LINE
  8
1
 62
7
 10
163.6583214674155
 20
1035.892154710911
 30
0
 11
163.1094836869094
 21
1035.343316930405
 31
0
  0
LINE
  8
1
 62
7
 10
160.2323891125666
 20
1035.931045583876
 30
0
 11
161.0365620228269
 21
1035.126872673616
 31
0
  0
LINE
  8
1
 62
7
 10
160.5399805623827
 20
1036.309347711811
 30
0
 11
160.2323891125666
 21
1036.001756261995
 31
0
  0
LINE
  8
1
 62
7
 10
163.6618570013214
 20
1036.602797026003
 30
0
 11
163.3542655515053
 21
1036.295205576187
 31
0
  0
LINE
  8
1
 62
7
 10
160.2359246464726
 20
1036.613403627721
 30
0
 11
161.5547710421891
 21
1035.294557232005
 31
0
  0
LINE
  8
1
 62
7
 10
160.2323891125666
 20
1035.931045583876
 30
0
 11
160.2323891125666
 21
1036.001756261995
 31
0
  0
LINE
  8
1
 62
7
 10
163.6618570013214
 20
1036.602797026003
 30
0
 11
163.6618570013214
 21
1036.673507704121
 31
0
  0
LINE
  8
1
 62
7
 10
163.6583214674154
 20
1035.991149660277
 30
0
 11
163.6583214674155
 21
1035.892154710911
 31
0
  0
LINE
  8
1
 62
7
 10
163.6684434005036
 20
1035.902276643999
 30
0
 11
163.6583214674155
 21
1035.892154710911
 31
0
  0
LINE
  8
1
 62
7
 10
160.2359246464725
 20
1036.712398577087
 30
0
 11
160.2359246464726
 21
1036.613403627721
 31
0
  0
LINE
  8
1
 62
7
 10
160.2258027133844
 20
1036.702276643999
 30
0
 11
160.2359246464725
 21
1036.712398577087
 31
0
  0
LINE
  8
1
 62
7
 10
163.6583214674155
 20
1035.892154710911
 30
0
 11
162.2831169502373
 21
1037.267359228089
 31
0
  0
LINE
  8
1
 62
7
 10
163.6684434005036
 20
1017.902276643999
 30
0
 11
162.9748617356727
 21
1017.208694979168
 31
0
  0
LINE
  8
1
 62
7
 10
160.2258027133844
 20
1018.702276643999
 30
0
 11
161.0114904949349
 21
1019.487964425549
 31
0
  0
LINE
  8
1
 62
7
 10
160.2323891125666
 20
1018.602797026003
 30
0
 11
160.5399805623827
 21
1018.295205576187
 31
0
  0
LINE
  8
1
 62
7
 10
163.3542655515053
 20
1018.309347711811
 30
0
 11
163.6618570013214
 21
1018.001756261995
 31
0
  0
LINE
  8
1
 62
7
 10
163.6618570013214
 20
1017.931045583877
 30
0
 11
162.9472586231616
 21
1017.216447205717
 31
0
  0
LINE
  8
1
 62
7
 10
160.2323891125666
 20
1018.602797026003
 30
0
 11
160.2323891125666
 21
1018.673507704122
 31
0
  0
LINE
  8
1
 62
7
 10
163.6618570013214
 20
1017.931045583877
 30
0
 11
163.6618570013214
 21
1018.001756261995
 31
0
  0
LINE
  8
1
 62
7
 10
163.6583214674155
 20
1018.712398577087
 30
0
 11
163.6583214674154
 21
1018.613403627721
 31
0
  0
LINE
  8
1
 62
7
 10
163.6583214674155
 20
1018.712398577087
 30
0
 11
163.6684434005036
 21
1018.702276643999
 31
0
  0
LINE
  8
1
 62
7
 10
163.6583214674154
 20
1018.613403627721
 30
0
 11
162.3729400335689
 21
1017.328022193874
 31
0
  0
LINE
  8
1
 62
7
 10
160.2359246464726
 20
1017.991149660277
 30
0
 11
160.2359246464725
 21
1017.892154710911
 31
0
  0
LINE
  8
1
 62
7
 10
160.2359246464725
 20
1017.892154710911
 30
0
 11
160.2258027133844
 21
1017.902276643999
 31
0
  0
LINE
  8
1
 62
7
 10
160.2359246464725
 20
1017.892154710911
 30
0
 11
161.6350341949554
 21
1019.291264259394
 31
0
  0
LINE
  8
1
 62
7
 10
163.6618570013214
 20
1018.001756261995
 30
0
 11
162.8915132526757
 21
1017.231412513349
 31
0
  0
LINE
  8
1
 62
7
 10
160.2323891125666
 20
1018.602797026003
 30
0
 11
161.0871588287287
 21
1019.457566742165
 31
0
  0
LINE
  8
1
 62
7
 10
161.554771042189
 20
1019.309996055993
 30
0
 11
160.2359246464726
 21
1017.991149660277
 31
0
  0
LINE
  8
1
 62
7
 10
163.1094836869094
 20
1019.261236357593
 30
0
 11
163.6583214674155
 21
1018.712398577087
 31
0
  0
LINE
  8
1
 62
7
 10
160.9193843782153
 20
1017.208694979168
 30
0
 11
160.2359246464725
 21
1017.892154710911
 31
0
  0
LINE
  8
1
 62
7
 10
162.2831169502374
 20
1017.337194059909
 30
0
 11
163.6583214674155
 21
1018.712398577087
 31
0
  0
LINE
  8
1
 62
7
 10
161.0365620228268
 20
1019.477680614382
 30
0
 11
160.2323891125666
 21
1018.673507704122
 31
0
  0
LINE
  8
1
 62
7
 10
162.372940033569
 20
1037.276531094124
 30
0
 11
163.6583214674154
 21
1035.991149660277
 31
0
  0
LINE
  8
1
 62
7
 10
162.8915132526756
 20
1037.373140774649
 30
0
 11
163.6618570013214
 21
1036.602797026003
 31
0
  0
LINE
  8
1
 62
7
 10
162.9472586231615
 20
1037.388106082281
 30
0
 11
163.6618570013214
 21
1036.673507704121
 31
0
  0
LINE
  8
1
 62
7
 10
162.9748617356727
 20
1037.39585830883
 30
0
 11
163.6684434005036
 21
1036.702276643999
 31
0
  0
LINE
  8
1
 62
7
 10
161.011490494935
 20
1035.116588862448
 30
0
 11
160.2258027133844
 21
1035.902276643999
 31
0
  0
LINE
  8
1
 62
7
 10
161.0871588287288
 20
1035.146986545833
 30
0
 11
160.2323891125666
 21
1036.001756261995
 31
0
  0
LINE
  8
1
 62
7
 10
161.6350341949556
 20
1035.313289028604
 30
0
 11
160.2359246464725
 21
1036.712398577087
 31
0
  0
ARC
  8
1
 62
7
 10
118.3444330797108
 20
1027.302276643999
 30
0
 40
2.000000000000216
 50
318.3538253813236
 51
23.60752975590085
  0
ARC
  8
1
 62
7
 10
118.3444330797108
 20
1027.302276643999
 30
0
 40
1.999999999999784
 50
130.3063884018302
 51
211.6549667354099
  0
ARC
  8
1
 62
7
 10
137.2810997463774
 20
1013.602276643999
 30
0
 40
5.563333333333342
 50
316.9180481629239
 51
43.08195183707701
  0
ARC
  8
1
 62
7
 10
74.31903107502698
 20
1013.602276643999
 30
0
 40
5.498857083464899
 50
136.2865034308879
 51
223.7134965691112
  0
ARC
  8
1
 62
7
 10
74.31903107502698
 20
1041.002276643999
 30
0
 40
5.49885708346482
 50
136.2865034308888
 51
223.7134965691112
  0
ARC
  8
1
 62
7
 10
137.2810997463774
 20
1041.002276643999
 30
0
 40
5.563333333333342
 50
316.9180481629239
 51
43.08195183707615
  0
CIRCLE
  8
1
 62
7
 10
162.447123056944
 20
1023.002276643999
 30
0
 40
3.25
  0
CIRCLE
  8
1
 62
7
 10
161.947123056944
 20
1013.602276643999
 30
0
 40
3.25
  0
CIRCLE
  8
1
 62
7
 10
162.447123056944
 20
1031.602276643999
 30
0
 40
3.25
  0
CIRCLE
  8
1
 62
7
 10
161.947123056944
 20
1041.002276643999
 30
0
 40
3.25
  0
CIRCLE
  8
1
 62
7
 10
93.34443307971077
 20
1027.302276643999
 30
0
 40
2
  0
CIRCLE
  8
1
 62
7
 10
130.8444330797108
 20
1012.802276643999
 30
0
 40
1.599999999999909
  0
CIRCLE
  8
1
 62
3
 10
130.8444330797108
 20
1012.802276643999
 30
0
 40
2
  0
CIRCLE
  8
1
 62
3
 10
105.8444330797108
 20
1012.802276643999
 30
0
 40
2
  0
CIRCLE
  8
1
 62
7
 10
105.8444330797108
 20
1012.802276643999
 30
0
 40
1.599999999999909
  0
CIRCLE
  8
1
 62
7
 10
80.84443307971078
 20
1012.802276643999
 30
0
 40
1.600000000000009
  0
CIRCLE
  8
1
 62
3
 10
80.84443307971078
 20
1012.802276643999
 30
0
 40
1.999999999999986
  0
CIRCLE
  8
1
 62
7
  6
DASHED
 10
130.8444330797108
 20
1012.802276643999
 30
0
 40
3
  0
CIRCLE
  8
1
 62
7
  6
DASHED
 10
105.8444330797108
 20
1012.802276643999
 30
0
 40
3
  0
CIRCLE
  8
1
 62
7
  6
DASHED
 10
80.84443307971078
 20
1012.802276643999
 30
0
 40
2.999999999999986
  0
CIRCLE
  8
1
 62
3
 10
80.84443307971078
 20
1027.302276643999
 30
0
 40
1.999999999999986
  0
CIRCLE
  8
1
 62
7
  6
DASHED
 10
80.84443307971078
 20
1041.802276643999
 30
0
 40
2.999999999999986
  0
CIRCLE
  8
1
 62
7
 10
80.84443307971078
 20
1027.302276643999
 30
0
 40
2.999999999999986
  0
CIRCLE
  8
1
 62
7
 10
105.8444330797108
 20
1027.302276643999
 30
0
 40
3
  0
CIRCLE
  8
1
 62
7
  6
DASHED
 10
105.8444330797108
 20
1041.802276643999
 30
0
 40
3
  0
CIRCLE
  8
1
 62
7
 10
130.8444330797108
 20
1027.302276643999
 30
0
 40
3
  0
CIRCLE
  8
1
 62
7
  6
DASHED
 10
130.8444330797108
 20
1041.802276643999
 30
0
 40
3
  0
CIRCLE
  8
1
 62
7
 10
80.84443307971078
 20
1027.302276643999
 30
0
 40
1.600000000000009
  0
CIRCLE
  8
1
 62
3
 10
80.84443307971078
 20
1041.802276643999
 30
0
 40
1.999999999999986
  0
CIRCLE
  8
1
 62
7
 10
80.84443307971078
 20
1041.802276643999
 30
0
 40
1.600000000000009
  0
CIRCLE
  8
1
 62
7
 10
105.8444330797108
 20
1027.302276643999
 30
0
 40
1.599999999999909
  0
CIRCLE
  8
1
 62
3
 10
105.8444330797108
 20
1027.302276643999
 30
0
 40
2
  0
CIRCLE
  8
1
 62
7
 10
105.8444330797108
 20
1041.802276643999
 30
0
 40
1.599999999999909
  0
CIRCLE
  8
1
 62
3
 10
105.8444330797108
 20
1041.802276643999
 30
0
 40
2
  0
CIRCLE
  8
1
 62
3
 10
130.8444330797108
 20
1027.302276643999
 30
0
 40
2
  0
CIRCLE
  8
1
 62
7
 10
130.8444330797108
 20
1027.302276643999
 30
0
 40
1.599999999999909
  0
CIRCLE
  8
1
 62
3
 10
130.8444330797108
 20
1041.802276643999
 30
0
 40
2
  0
CIRCLE
  8
1
 62
7
 10
130.8444330797108
 20
1041.802276643999
 30
0
 40
1.599999999999909
  0
CIRCLE
  8
1
 62
7
 10
161.947123056944
 20
1041.002276643999
 30
0
 40
3.74999999999944
  0
CIRCLE
  8
1
 62
7
 10
161.947123056944
 20
1013.602276643999
 30
0
 40
3.749999999999553
  0
CIRCLE
  8
1
 62
7
 10
162.447123056944
 20
1022.952276643999
 30
0
 40
3.749999999999553
  0
CIRCLE
  8
1
 62
7
 10
162.447123056944
 20
1031.652276643999
 30
0
 40
3.749999999999666
  0
ARC
  8
1
 62
7
 10
180.480787952524
 20
1016.652276643999
 30
0
 40
0.5
 50
180
 51
0
  0
ARC
  8
1
 62
7
 10
180.480787952524
 20
1037.952276643999
 30
0
 40
0.5
 50
0
 51
180
  0
TEXT
  8
1
 62
2
 10
61.5972439850753
 20
1063.94376500974
 30
0
 40
3.5
  1
MODEL : GW3
 41
0.7200000000000003
  7
COMPLEX
  0
TEXT
  8
1
 62
2
 10
146.153472554555
 20
980.373614907542
 30
0
 40
3.5
  1
UNION TOOL CO.
 41
0.7200000000000003
  7
COMPLEX
  0
ENDSEC
  0
EOF
