  0
SECTION
  2
HEADER
  9
$ACADVER
  1
AC1009
  9
$INSBASE
 10
0
 20
0
  9
$EXTMIN
 10
447.4428656985505
 20
187.727381019313
  9
$EXTMAX
 10
829.1686884602628
 20
320.630220389724
  9
$LIMMIN
 10
447.4428656985505
 20
187.727381019313
  9
$LIMMAX
 10
829.1686884602628
 20
320.630220389724
  9
$VIEWCTR
 10
10
 20
10
  9
$VIEWSIZE
 40
10
  9
$SNAPMODE
 70
0
  9
$SNAPUNIT
 10
1
 20
1
  9
$SNAPBASE
 10
0
 20
0
  9
$SNAPANG
 50
0
  9
$SNAPSTYLE
 70
0
  9
$SNAPISOPAIR
 70
0
  9
$GRIDMODE
 70
0
  9
$GRIDUNIT
 10
0
 20
0
  9
$ORTHOMODE
 70
0
  9
$REGENMODE
 70
1
  9
$FILLMODE
 70
1
  9
$QTEXTMODE
 70
0
  9
$DRAGMODE
 70
2
  9
$LTSCALE
 40
1
  9
$OSMODE
 70
0
  9
$ATTMODE
 70
1
  9
$TEXTSIZE
 40
3.5
  9
$TRACEWID
 40
0.5
  9
$TEXTSTYLE
  7
STANDARD
  9
$CLAYER
  8
0
  9
$CELTYPE
  6
BYLAYER
  9
$CECOLOR
 62
256
  9
$DIMSCALE
 40
1
  9
$DIMASZ
 40
0.18
  9
$DIMEXO
 40
0.0625
  9
$DIMDLI
 40
0.38
  9
$DIMRND
 40
0
  9
$DIMDLE
 40
0
  9
$DIMEXE
 40
0.18
  9
$DIMTP
 40
0
  9
$DIMTM
 40
0
  9
$DIMTXT
 40
0.18
  9
$DIMCEN
 40
0.09
  9
$DIMTSZ
 40
0
  9
$DIMTOL
 70
0
  9
$DIMLIM
 70
0
  9
$DIMTIH
 70
1
  9
$DIMTOH
 70
1
  9
$DIMSE1
 70
0
  9
$DIMSE2
 70
0
  9
$DIMTAD
 70
0
  9
$DIMZIN
 70
0
  9
$DIMBLK
  1

  9
$DIMASO
 70
1
  9
$DIMSHO
 70
1
  9
$DIMPOST
  1

  9
$DIMAPOST
  1

  9
$DIMALT
 70
0
  9
$DIMALTD
 70
2
  9
$DIMALTF
 40
25.4
  9
$DIMLFAC
 40
1
  9
$DIMTOFL
 70
0
  9
$DIMTVP
 40
0
  9
$DIMTIX
 70
0
  9
$DIMSOXD
 70
0
  9
$DIMSAH
 70
0
  9
$DIMBLK1
  1

  9
$DIMBLK2
  1

  9
$DIMSTYLE
  2
*UNNAMED
  9
$DIMCLRD
 70
0
  9
$DIMCLRE
 70
0
  9
$DIMCLRT
 70
0
  9
$DIMTFAC
 40
1
  9
$DIMGAP
 40
0.09
  9
$LUNITS
 70
2
  9
$LUPREC
 70
4
  9
$AXISMODE
 70
0
  9
$AXISUNIT
 10
0
 20
0
  9
$SKETCHINC
 40
0.1
  9
$FILLETRAD
 40
2
  9
$AUNITS
 70
0
  9
$AUPREC
 70
0
  9
$MENU
  1
ACAD
  9
$ELEVATION
 40
0
  9
$THICKNESS
 40
0
  9
$VIEWDIR
 10
0
 20
0
 30
1
  9
$LIMCHECK
 70
0
  9
$BLIPMODE
 70
1
  9
$CHAMFERA
 40
0
  9
$CHAMFERB
 40
0
  9
$FASTZOOM
 70
1
  9
$SKPOLY
 70
0
  9
$ANGBASE
 50
0
  9
$ANGDIR
 70
0
  9
$PDMODE
 70
0
  9
$PDSIZE
 40
0
  9
$PLINEWID
 40
0
  9
$COORDS
 70
2
  0
ENDSEC
  0
SECTION
  2
TABLES
  0
TABLE
  2
DIMSTYLE
 70
0
  0
ENDTAB
  0
TABLE
  2
LTYPE
 70
9
  0
LTYPE
  2
CONTINUOUS
 70
64
  3
Solid line
 72
65
 73
0
 40
0
  0
LTYPE
  2
BORDER
 70
64
  3
__ __ . __ __ .
 72
65
 73
6
 40
17.5794786798157
 49
5.022708194233057
 49
-2.511354097116529
 49
5.022708194233057
 49
-2.511354097116529
 49
0
 49
-2.511354097116529
  0
LTYPE
  2
CENTER
 70
64
  3
____ _ ____ _
 72
65
 73
4
 40
20.09083277693223
 49
12.55677048558264
 49
-2.511354097116529
 49
2.511354097116529
 49
-2.511354097116529
  0
LTYPE
  2
DASHDOT
 70
64
  3
__ . __ . __ .
 72
65
 73
4
 40
10.04541638846611
 49
5.022708194233057
 49
-2.511354097116529
 49
0
 49
-2.511354097116529
  0
LTYPE
  2
DASHED
 70
64
  3
__ __ __ __ __
 72
65
 73
2
 40
7.534062291349585
 49
5.022708194233057
 49
-2.511354097116529
  0
LTYPE
  2
DIVIDE
 70
64
  3
__ . . __ . . 
 72
65
 73
6
 40
12.55677048558264
 49
5.022708194233057
 49
-2.511354097116529
 49
0
 49
-2.511354097116529
 49
0
 49
-2.511354097116529
  0
LTYPE
  2
DOT
 70
64
  3
..............
 72
65
 73
4
 40
5.022708194233057
 49
0
 49
-2.511354097116529
 49
0
 49
-2.511354097116529
  0
LTYPE
  2
HIDDEN
 70
64
  3
_ _ _ _ _ _ _
 72
65
 73
2
 40
3.767031145674793
 49
2.511354097116529
 49
-1.255677048558264
  0
LTYPE
  2
PHANTOM
 70
64
  3
_____ _ _ _____ _ _ 
 72
65
 73
6
 40
25.11354097116529
 49
12.55677048558264
 49
-2.511354097116529
 49
2.511354097116529
 49
-2.511354097116529
 49
2.511354097116529
 49
-2.511354097116529
  0
ENDTAB
  0
TABLE
  2
LAYER
 70
3
  0
LAYER
  2
1
 70
0
 62
7
  6
CONTINUOUS
  0
LAYER
  2
0
 70
0
 62
7
  6
CONTINUOUS
  0
ENDTAB
  0
TABLE
  2
STYLE
 70
4
  0
STYLE
  2
STANDARD
 70
0
 40
0
 41
1
 50
0
 71
0
 42
3.5
  3
txt
  4

  0
STYLE
  2
SIMPLEX
 70
0
 40
0
 41
1
 50
0
 71
0
 42
3.5
  3
simplex
  4

  0
STYLE
  2
COMPLEX
 70
0
 40
0
 41
1
 50
0
 71
0
 42
3.5
  3
complex
  4

  0
STYLE
  2
ITALIC
 70
0
 40
0
 41
1
 50
0
 71
0
 42
3.5
  3
italic
  4

  0
ENDTAB
  0
TABLE
  2
VIEW
 70
0
  0
ENDTAB
  0
ENDSEC
  0
SECTION
  2
BLOCKS
  0
ENDSEC
  0
SECTION
  2
ENTITIES
  0
LINE
  8
1
 62
7
 10
784.4146848410562
 20
263.1918243679125
 30
0
 11
786.6915539422124
 21
265.4686934690687
 31
0
  0
LINE
  8
1
 62
7
 10
783.3250868667506
 20
263.5517952950391
 30
0
 11
786.564274721599
 21
266.7909831498876
 31
0
  0
LINE
  8
1
 62
7
 10
777.6900698834432
 20
263.1918243679125
 30
0
 11
775.388416331571
 21
265.4934779197849
 31
0
  0
LINE
  8
1
 62
7
 10
777.6900698834434
 20
269.1951314716575
 30
0
 11
775.4132007822869
 21
266.9182623705012
 31
0
  0
LINE
  8
1
 62
7
 10
777.7406048632749
 20
269.1749557733703
 30
0
 11
775.5369444689948
 21
266.9712953790902
 31
0
  0
LINE
  8
1
 62
7
 10
778.7796678577491
 20
268.8351605445309
 30
0
 11
775.5404800029006
 21
265.5959726896824
 31
0
  0
LINE
  8
1
 62
7
 10
784.4146848410561
 20
269.1951314716575
 30
0
 11
786.7163383929286
 21
266.893477919785
 31
0
  0
LINE
  8
1
 62
7
 10
786.5678102555048
 20
265.4156604604798
 30
0
 11
784.3641498612249
 21
263.2120000661997
 31
0
  0
LINE
  8
1
 62
7
 10
786.5678102555048
 20
265.6277924948357
 30
0
 11
784.2110118234527
 21
263.2709940627836
 31
0
  0
LINE
  8
1
 62
7
 10
786.564274721599
 20
267.0455415911147
 30
0
 11
783.1212039468732
 21
263.6024708163889
 31
0
  0
LINE
  8
1
 62
7
 10
775.5369444689948
 20
266.7591633447342
 30
0
 11
777.893742901047
 21
269.1159617767864
 31
0
  0
LINE
  8
1
 62
7
 10
786.5678102555048
 20
265.4156604604798
 30
0
 11
786.5678102555048
 21
265.6277924948357
 31
0
  0
LINE
  8
1
 62
7
 10
775.5369444689948
 20
266.7591633447342
 30
0
 11
775.5369444689948
 21
266.9712953790902
 31
0
  0
LINE
  8
1
 62
7
 10
786.564274721599
 20
266.7909831498876
 30
0
 11
786.564274721599
 21
267.0455415911147
 31
0
  0
LINE
  8
1
 62
7
 10
775.5404800029006
 20
265.3414142484553
 30
0
 11
778.9835507776265
 21
268.7844850231812
 31
0
  0
LINE
  8
1
 62
7
 10
775.5404800029006
 20
265.5959726896824
 30
0
 11
775.5404800029006
 21
265.3414142484553
 31
0
  0
LINE
  8
1
 62
7
 10
785.984447161026
 20
266.2111555893146
 30
0
 11
786.5678102555048
 21
265.6277924948357
 31
0
  0
LINE
  8
1
 62
7
 10
775.5369444689948
 20
266.7591633447342
 30
0
 11
776.1203075634736
 21
266.1758002502553
 31
0
  0
LINE
  8
1
 62
7
 10
775.4132007822869
 20
266.9182623705012
 30
0
 11
775.388416331571
 21
266.893477919785
 31
0
  0
LINE
  8
1
 62
7
 10
786.6915539422124
 20
265.4686934690687
 30
0
 11
786.7163383929286
 21
265.4934779197849
 31
0
  0
LINE
  8
1
 62
7
 10
809.493255567008
 20
266.7591633447342
 30
0
 11
814.4430030353138
 21
271.7089108130401
 31
0
  0
LINE
  8
1
 62
7
 10
820.524121353518
 20
265.6277924948357
 30
0
 11
815.5743738852121
 21
260.6780450265299
 31
0
  0
LINE
  8
1
 62
7
 10
815.5743738852121
 20
260.6780450265299
 30
0
 11
815.7865059195682
 21
260.6780450265299
 31
0
  0
LINE
  8
1
 62
7
 10
820.524121353518
 20
265.4156604604798
 30
0
 11
820.524121353518
 21
265.6277924948357
 31
0
  0
LINE
  8
1
 62
7
 10
814.2308710009578
 20
271.7089108130401
 30
0
 11
814.4430030353138
 21
271.7089108130401
 31
0
  0
LINE
  8
1
 62
7
 10
809.493255567008
 20
266.7591633447342
 30
0
 11
809.493255567008
 21
266.9712953790902
 31
0
  0
LINE
  8
1
 62
7
 10
820.5205858196122
 20
267.0455415911147
 30
0
 11
814.1566247889332
 21
260.6815805604358
 31
0
  0
LINE
  8
1
 62
7
 10
815.0086884602631
 20
272.557438950464
 30
0
 11
820.6726494909418
 21
266.893477919785
 31
0
  0
LINE
  8
1
 62
7
 10
820.5205858196122
 20
266.7909831498876
 30
0
 11
820.5205858196122
 21
267.0455415911147
 31
0
  0
LINE
  8
1
 62
7
 10
814.4111832301602
 20
260.6815805604357
 30
0
 11
820.5205858196122
 21
266.7909831498876
 31
0
  0
LINE
  8
1
 62
7
 10
814.1566247889332
 20
260.6815805604358
 30
0
 11
814.4111832301602
 21
260.6815805604357
 31
0
  0
LINE
  8
1
 62
7
 10
809.4967911009138
 20
265.3414142484553
 30
0
 11
815.8607521315928
 21
271.7053752791342
 31
0
  0
LINE
  8
1
 62
7
 10
815.0086884602629
 20
259.8295168891061
 30
0
 11
809.3447274295842
 21
265.493477919785
 31
0
  0
LINE
  8
1
 62
7
 10
809.4967911009138
 20
265.5959726896824
 30
0
 11
809.4967911009138
 21
265.3414142484553
 31
0
  0
LINE
  8
1
 62
7
 10
815.6061936903656
 20
271.7053752791342
 30
0
 11
809.4967911009138
 21
265.5959726896824
 31
0
  0
LINE
  8
1
 62
7
 10
815.8607521315928
 20
271.7053752791342
 30
0
 11
815.6061936903656
 21
271.7053752791342
 31
0
  0
LINE
  8
1
 62
7
 10
815.5743738852121
 20
260.6780450265299
 30
0
 11
814.9910107907334
 21
261.2614081210088
 31
0
  0
LINE
  8
1
 62
7
 10
820.524121353518
 20
265.4156604604798
 30
0
 11
815.7865059195682
 21
260.6780450265299
 31
0
  0
LINE
  8
1
 62
7
 10
819.9407582590392
 20
266.2111555893146
 30
0
 11
820.524121353518
 21
265.6277924948357
 31
0
  0
LINE
  8
1
 62
7
 10
809.493255567008
 20
266.7591633447342
 30
0
 11
810.0766186614868
 21
266.1758002502553
 31
0
  0
LINE
  8
1
 62
7
 10
814.2308710009578
 20
271.7089108130401
 30
0
 11
809.493255567008
 21
266.9712953790902
 31
0
  0
LINE
  8
1
 62
7
 10
815.0263661297926
 20
271.1255477185612
 30
0
 11
814.4430030353138
 21
271.7089108130401
 31
0
  0
LINE
  8
1
 62
3
  6
DASHDOT
 10
804.243240204055
 20
266.193477919785
 30
0
 11
825.740405622331
 21
266.193477919785
 31
0
  0
LINE
  8
1
 62
7
 10
809.3447274295839
 20
266.893477919785
 30
0
 11
805.208688460263
 21
266.893477919785
 31
0
  0
LINE
  8
1
 62
7
 10
804.008688460263
 20
268.093477919785
 30
0
 11
804.008688460263
 21
286.9934779197849
 31
0
  0
LINE
  8
1
 62
7
 10
824.8086884602631
 20
288.1934779197849
 30
0
 11
805.208688460263
 21
288.1934779197849
 31
0
  0
LINE
  8
1
 62
7
 10
820.6726494909418
 20
266.893477919785
 30
0
 11
824.8086884602631
 21
266.893477919785
 31
0
  0
LINE
  8
1
 62
7
 10
815.0086884602631
 20
272.557438950464
 30
0
 11
809.3695118803001
 21
266.9182623705012
 31
0
  0
LINE
  8
1
 62
7
 10
804.008688460263
 20
268.093477919785
 30
0
 11
805.208688460263
 21
266.893477919785
 31
0
  0
LINE
  8
1
 62
7
 10
824.8086884602631
 20
266.893477919785
 30
0
 11
826.008688460263
 21
268.093477919785
 31
0
  0
LINE
  8
1
 62
7
 10
826.008688460263
 20
286.9934779197849
 30
0
 11
824.8086884602631
 21
288.1934779197849
 31
0
  0
LINE
  8
1
 62
7
 10
805.208688460263
 20
288.1934779197849
 30
0
 11
804.008688460263
 21
286.9934779197849
 31
0
  0
LINE
  8
1
 62
7
 10
809.3695118803001
 20
266.9182623705012
 30
0
 11
809.3447274295839
 21
266.893477919785
 31
0
  0
LINE
  8
1
 62
3
  6
CENTER
 10
828.2086884602632
 20
279.193477919785
 30
0
 11
800.8486884602631
 21
279.193477919785
 31
0
  0
LINE
  8
1
 62
7
 10
826.008688460263
 20
284.4434779197849
 30
0
 11
819.8086884602631
 21
284.4434779197849
 31
0
  0
LINE
  8
1
 62
7
 10
819.8086884602631
 20
273.943477919785
 30
0
 11
826.008688460263
 21
273.943477919785
 31
0
  0
LINE
  8
1
 62
7
 10
826.008688460263
 20
268.093477919785
 30
0
 11
826.008688460263
 21
286.9934779197849
 31
0
  0
LINE
  8
1
 62
7
 10
819.8086884602631
 20
282.4434779197849
 30
0
 11
804.008688460263
 21
282.4434779197849
 31
0
  0
LINE
  8
1
 62
7
 10
819.8086884602631
 20
275.943477919785
 30
0
 11
804.008688460263
 21
275.943477919785
 31
0
  0
LINE
  8
1
 62
3
 10
819.8086884602631
 20
283.1934779197849
 30
0
 11
804.008688460263
 21
283.1934779197849
 31
0
  0
LINE
  8
1
 62
3
 10
819.8086884602631
 20
275.193477919785
 30
0
 11
804.008688460263
 21
275.193477919785
 31
0
  0
LINE
  8
1
 62
7
 10
819.8086884602631
 20
284.4434779197849
 30
0
 11
819.8086884602631
 21
273.943477919785
 31
0
  0
LINE
  8
1
 62
7
 10
780.3023773622498
 20
263.8121734771111
 30
0
 11
780.3023773622498
 21
245.874782362459
 31
0
  0
LINE
  8
1
 62
7
 10
781.8023773622498
 20
263.8121734771111
 30
0
 11
781.8023773622498
 21
245.874782362459
 31
0
  0
LINE
  8
1
 62
7
 10
781.8023773622498
 20
286.512173477111
 30
0
 11
781.8023773622498
 21
268.574782362459
 31
0
  0
LINE
  8
1
 62
7
 10
780.3023773622498
 20
286.512173477111
 30
0
 11
780.3023773622498
 21
268.574782362459
 31
0
  0
LINE
  8
1
 62
7
 10
450.4428656985505
 20
245.3917782451073
 30
0
 11
450.4428656985505
 21
264.293477919785
 31
0
  0
LINE
  8
1
 62
7
 10
450.4428656985505
 20
245.843477919785
 30
0
 11
448.4428656985505
 21
245.843477919785
 31
0
  0
LINE
  8
1
 62
7
 10
450.4428656985505
 20
263.843477919785
 30
0
 11
448.4428656985505
 21
263.843477919785
 31
0
  0
LINE
  8
1
 62
7
 10
447.4428656985505
 20
246.8696202789712
 30
0
 11
448.4428656985505
 21
245.843477919785
 31
0
  0
LINE
  8
1
 62
7
 10
448.4428656985505
 20
263.843477919785
 30
0
 11
447.4428656985505
 21
262.843477919785
 31
0
  0
LINE
  8
1
 62
7
 10
447.4428656985505
 20
246.8696202789712
 30
0
 11
447.4428656985505
 21
262.843477919785
 31
0
  0
LINE
  8
1
 62
7
 10
448.4428656985505
 20
245.843477919785
 30
0
 11
448.4428656985505
 21
263.843477919785
 31
0
  0
LINE
  8
1
 62
7
 10
448.4428656985505
 20
286.543477919785
 30
0
 11
448.4428656985505
 21
268.543477919785
 31
0
  0
LINE
  8
1
 62
7
 10
447.4428656985505
 20
269.5434779197851
 30
0
 11
448.4428656985505
 21
268.543477919785
 31
0
  0
LINE
  8
1
 62
7
 10
448.4428656985505
 20
286.543477919785
 30
0
 11
447.4428656985505
 21
285.543477919785
 31
0
  0
LINE
  8
1
 62
7
 10
448.4428656985505
 20
268.543477919785
 30
0
 11
450.4428656985505
 21
268.543477919785
 31
0
  0
LINE
  8
1
 62
7
 10
447.4428656985505
 20
269.5434779197851
 30
0
 11
447.4428656985505
 21
285.543477919785
 31
0
  0
LINE
  8
1
 62
7
 10
448.4428656985505
 20
286.543477919785
 30
0
 11
450.4428656985505
 21
286.543477919785
 31
0
  0
LINE
  8
1
 62
7
 10
450.4428656985505
 20
268.093477919785
 30
0
 11
451.6428656985503
 21
266.8934779197849
 31
0
  0
LINE
  8
1
 62
7
 10
450.4428656985505
 20
286.9934779197849
 30
0
 11
451.6428656985503
 21
288.193477919785
 31
0
  0
LINE
  8
1
 62
7
 10
450.4428656985505
 20
268.093477919785
 30
0
 11
450.4428656985505
 21
286.9934779197849
 31
0
  0
LINE
  8
1
 62
7
 10
451.6428656985503
 20
244.193477919785
 30
0
 11
450.4428656985505
 21
245.393477919785
 31
0
  0
LINE
  8
1
 62
7
 10
450.4428656985505
 20
264.293477919785
 30
0
 11
451.6428656985503
 21
265.4934779197851
 31
0
  0
LINE
  8
1
 62
3
  6
CENTER
 10
700.4428656985522
 20
272.793477919785
 30
0
 11
700.4428656985519
 21
285.593477919785
 31
0
  0
LINE
  8
1
 62
3
  6
CENTER
 10
694.0428656985521
 20
279.193477919785
 30
0
 11
706.8428656985518
 21
279.193477919785
 31
0
  0
LINE
  8
1
 62
3
  6
CENTER
 10
700.4428656985519
 20
246.793477919785
 30
0
 11
700.4428656985522
 21
259.593477919785
 31
0
  0
LINE
  8
1
 62
3
  6
CENTER
 10
694.0428656985519
 20
253.193477919785
 30
0
 11
706.8428656985518
 21
253.193477919785
 31
0
  0
LINE
  8
1
 62
3
  6
CENTER
 10
600.4428656985519
 20
272.793477919785
 30
0
 11
600.4428656985519
 21
285.593477919785
 31
0
  0
LINE
  8
1
 62
3
  6
CENTER
 10
594.0428656985519
 20
279.193477919785
 30
0
 11
606.8428656985518
 21
279.193477919785
 31
0
  0
LINE
  8
1
 62
3
  6
CENTER
 10
600.4428656985519
 20
246.793477919785
 30
0
 11
600.4428656985519
 21
259.593477919785
 31
0
  0
LINE
  8
1
 62
3
  6
CENTER
 10
594.0428656985519
 20
253.193477919785
 30
0
 11
606.8428656985518
 21
253.193477919785
 31
0
  0
LINE
  8
1
 62
3
  6
CENTER
 10
500.4428656985519
 20
272.793477919785
 30
0
 11
500.4428656985519
 21
285.593477919785
 31
0
  0
LINE
  8
1
 62
3
  6
CENTER
 10
494.0428656985519
 20
279.193477919785
 30
0
 11
506.8428656985519
 21
279.193477919785
 31
0
  0
LINE
  8
1
 62
3
  6
CENTER
 10
500.4428656985519
 20
246.793477919785
 30
0
 11
500.4428656985519
 21
259.593477919785
 31
0
  0
LINE
  8
1
 62
3
  6
CENTER
 10
494.0428656985519
 20
253.193477919785
 30
0
 11
506.8428656985519
 21
253.193477919785
 31
0
  0
LINE
  8
1
 62
7
 10
750.4428656985532
 20
264.293477919785
 30
0
 11
750.4428656985532
 21
245.3917782451073
 31
0
  0
LINE
  8
1
 62
7
 10
752.4428656985532
 20
245.843477919785
 30
0
 11
750.4428656985532
 21
245.843477919785
 31
0
  0
LINE
  8
1
 62
7
 10
752.4428656985532
 20
263.843477919785
 30
0
 11
750.4428656985532
 21
263.843477919785
 31
0
  0
LINE
  8
1
 62
7
 10
752.4428656985532
 20
245.843477919785
 30
0
 11
753.4428656985532
 21
246.8696202789712
 31
0
  0
LINE
  8
1
 62
7
 10
753.4428656985532
 20
262.843477919785
 30
0
 11
752.4428656985532
 21
263.843477919785
 31
0
  0
LINE
  8
1
 62
7
 10
753.4428656985532
 20
262.843477919785
 30
0
 11
753.4428656985532
 21
246.8696202789712
 31
0
  0
LINE
  8
1
 62
7
 10
752.4428656985532
 20
263.843477919785
 30
0
 11
752.4428656985532
 21
245.843477919785
 31
0
  0
LINE
  8
1
 62
7
 10
820.672649490942
 20
265.493477919785
 30
0
 11
824.8086884602629
 21
265.493477919785
 31
0
  0
LINE
  8
1
 62
7
 10
826.008688460263
 20
264.293477919785
 30
0
 11
826.008688460263
 21
245.393477919785
 31
0
  0
LINE
  8
1
 62
7
 10
805.2086884602629
 20
244.193477919785
 30
0
 11
824.8086884602629
 21
244.193477919785
 31
0
  0
LINE
  8
1
 62
7
 10
809.3447274295842
 20
265.493477919785
 30
0
 11
805.2086884602629
 21
265.493477919785
 31
0
  0
LINE
  8
1
 62
7
 10
815.0086884602629
 20
259.8295168891061
 30
0
 11
820.6478650402258
 21
265.4686934690688
 31
0
  0
LINE
  8
1
 62
7
 10
826.008688460263
 20
264.293477919785
 30
0
 11
824.8086884602629
 21
265.493477919785
 31
0
  0
LINE
  8
1
 62
7
 10
805.2086884602629
 20
265.493477919785
 30
0
 11
804.008688460263
 21
264.293477919785
 31
0
  0
LINE
  8
1
 62
7
 10
804.008688460263
 20
245.393477919785
 30
0
 11
805.2086884602629
 21
244.193477919785
 31
0
  0
LINE
  8
1
 62
7
 10
824.8086884602629
 20
244.193477919785
 30
0
 11
826.008688460263
 21
245.393477919785
 31
0
  0
LINE
  8
1
 62
4
  6
CENTER
 10
815.008688460263
 20
291.568674528634
 30
0
 11
815.008688460263
 21
240.920384877886
 31
0
  0
LINE
  8
1
 62
7
 10
820.6478650402258
 20
265.4686934690688
 30
0
 11
820.672649490942
 21
265.493477919785
 31
0
  0
LINE
  8
1
 62
7
 10
752.4428656985532
 20
268.543477919785
 30
0
 11
752.4428656985532
 21
286.543477919785
 31
0
  0
LINE
  8
1
 62
7
 10
752.4428656985532
 20
268.543477919785
 30
0
 11
753.4428656985532
 21
269.5434779197851
 31
0
  0
LINE
  8
1
 62
7
 10
753.4428656985532
 20
285.543477919785
 30
0
 11
752.4428656985532
 21
286.543477919785
 31
0
  0
LINE
  8
1
 62
7
 10
750.4428656985532
 20
268.543477919785
 30
0
 11
752.4428656985532
 21
268.543477919785
 31
0
  0
LINE
  8
1
 62
7
 10
753.4428656985532
 20
285.543477919785
 30
0
 11
753.4428656985532
 21
269.5434779197851
 31
0
  0
LINE
  8
1
 62
7
 10
750.4428656985532
 20
286.543477919785
 30
0
 11
752.4428656985532
 21
286.543477919785
 31
0
  0
LINE
  8
1
 62
3
  6
CENTER
 10
801.8086884602628
 20
253.193477919785
 30
0
 11
829.1686884602628
 21
253.193477919785
 31
0
  0
LINE
  8
1
 62
7
 10
804.008688460263
 20
247.943477919785
 30
0
 11
810.2086884602629
 21
247.943477919785
 31
0
  0
LINE
  8
1
 62
7
 10
810.2086884602629
 20
258.443477919785
 30
0
 11
804.008688460263
 21
258.443477919785
 31
0
  0
LINE
  8
1
 62
7
 10
804.008688460263
 20
264.293477919785
 30
0
 11
804.008688460263
 21
245.393477919785
 31
0
  0
LINE
  8
1
 62
7
 10
810.2086884602629
 20
249.943477919785
 30
0
 11
826.008688460263
 21
249.943477919785
 31
0
  0
LINE
  8
1
 62
7
 10
810.2086884602629
 20
256.443477919785
 30
0
 11
826.008688460263
 21
256.443477919785
 31
0
  0
LINE
  8
1
 62
7
 10
455.6428656985518
 20
245.393477919785
 30
0
 11
648.4454270685747
 21
245.393477919785
 31
0
  0
LINE
  8
1
 62
7
 10
455.6428656985518
 20
268.093477919785
 30
0
 11
652.4480495306568
 21
268.093477919785
 31
0
  0
LINE
  8
1
 62
7
 10
455.6428656985518
 20
264.293477919785
 30
0
 11
651.7780070039647
 21
264.293477919785
 31
0
  0
LINE
  8
1
 62
7
 10
745.2428656985532
 20
245.393477919785
 30
0
 11
745.2428656985532
 21
244.193477919785
 31
0
  0
LINE
  8
1
 62
7
 10
745.2428656985532
 20
265.4934779197851
 30
0
 11
745.2428656985532
 21
264.293477919785
 31
0
  0
LINE
  8
1
 62
7
 10
745.2428656985532
 20
268.093477919785
 30
0
 11
745.2428656985532
 21
266.8934779197849
 31
0
  0
LINE
  8
1
 62
7
 10
745.2428656985532
 20
288.193477919785
 30
0
 11
745.2428656985532
 21
286.9934779197849
 31
0
  0
LINE
  8
1
 62
7
 10
455.6428656985518
 20
286.9934779197849
 30
0
 11
655.7806294660469
 21
286.9934779197849
 31
0
  0
LINE
  8
1
 62
7
 10
455.6428656985518
 20
245.393477919785
 30
0
 11
455.6428656985518
 21
244.193477919785
 31
0
  0
LINE
  8
1
 62
7
 10
455.6428656985518
 20
265.4934779197851
 30
0
 11
455.6428656985518
 21
264.293477919785
 31
0
  0
LINE
  8
1
 62
7
 10
749.2428656985534
 20
266.8934779197849
 30
0
 11
656.2364571538067
 21
266.8934779197849
 31
0
  0
LINE
  8
1
 62
7
 10
455.6428656985518
 20
268.093477919785
 30
0
 11
455.6428656985518
 21
266.8934779197849
 31
0
  0
LINE
  8
1
 62
7
 10
455.6428656985518
 20
288.193477919785
 30
0
 11
455.6428656985518
 21
286.9934779197849
 31
0
  0
LINE
  8
1
 62
4
  6
CENTER
 10
691.15722320746
 20
266.1926280824462
 30
0
 11
753.4428656985532
 21
266.1926280824462
 31
0
  0
LINE
  8
1
 62
7
 10
749.2428656985534
 20
288.193477919785
 30
0
 11
659.992221842897
 21
288.193477919785
 31
0
  0
LINE
  8
1
 62
7
 10
749.2428656985534
 20
266.8934779197849
 30
0
 11
750.4428656985532
 21
268.093477919785
 31
0
  0
LINE
  8
1
 62
7
 10
749.2428656985534
 20
288.193477919785
 30
0
 11
750.4428656985532
 21
286.9934779197849
 31
0
  0
LINE
  8
1
 62
7
 10
750.4428656985532
 20
286.9934779197849
 30
0
 11
750.4428656985532
 21
268.093477919785
 31
0
  0
LINE
  8
1
 62
4
  6
CENTER
 10
447.4428656985505
 20
266.193477919785
 30
0
 11
691.1574509206885
 21
266.193477919785
 31
0
  0
LINE
  8
1
 62
7
 10
792.0523773622498
 20
286.9934779197851
 30
0
 11
790.85237736225
 21
288.193477919785
 31
0
  0
LINE
  8
1
 62
7
 10
771.2523773622498
 20
288.193477919785
 30
0
 11
770.0523773622498
 21
286.9934779197851
 31
0
  0
LINE
  8
1
 62
7
 10
770.0523773622498
 20
268.093477919785
 30
0
 11
771.2523773622498
 21
266.893477919785
 31
0
  0
LINE
  8
1
 62
7
 10
790.85237736225
 20
266.893477919785
 30
0
 11
792.0523773622498
 21
268.093477919785
 31
0
  0
LINE
  8
1
 62
7
 10
771.2523773622498
 20
266.893477919785
 30
0
 11
775.388416331571
 21
266.893477919785
 31
0
  0
LINE
  8
1
 62
7
 10
770.0523773622498
 20
286.9934779197851
 30
0
 11
770.0523773622498
 21
268.093477919785
 31
0
  0
LINE
  8
1
 62
7
 10
790.85237736225
 20
288.193477919785
 30
0
 11
771.2523773622498
 21
288.193477919785
 31
0
  0
LINE
  8
1
 62
7
 10
792.0523773622498
 20
286.9934779197851
 30
0
 11
792.0523773622498
 21
268.093477919785
 31
0
  0
LINE
  8
1
 62
7
 10
790.85237736225
 20
266.893477919785
 30
0
 11
786.7163383929286
 21
266.893477919785
 31
0
  0
LINE
  8
1
 62
4
  6
CENTER
 10
791.2942850537014
 20
266.193477919785
 30
0
 11
770.6072346694803
 21
266.193477919785
 31
0
  0
LINE
  8
1
 62
7
 10
786.7163383929286
 20
265.4934779197849
 30
0
 11
790.85237736225
 21
265.4934779197849
 31
0
  0
LINE
  8
1
 62
7
 10
792.0523773622498
 20
264.293477919785
 30
0
 11
792.0523773622498
 21
245.3934779197849
 31
0
  0
LINE
  8
1
 62
7
 10
771.2523773622498
 20
244.193477919785
 30
0
 11
790.85237736225
 21
244.193477919785
 31
0
  0
LINE
  8
1
 62
7
 10
770.0523773622498
 20
264.293477919785
 30
0
 11
770.0523773622498
 21
245.3934779197849
 31
0
  0
LINE
  8
1
 62
7
 10
775.388416331571
 20
265.4934779197849
 30
0
 11
771.2523773622498
 21
265.4934779197849
 31
0
  0
LINE
  8
1
 62
7
 10
792.0523773622498
 20
264.293477919785
 30
0
 11
790.85237736225
 21
265.4934779197849
 31
0
  0
LINE
  8
1
 62
7
 10
771.2523773622498
 20
265.4934779197849
 30
0
 11
770.0523773622498
 21
264.293477919785
 31
0
  0
LINE
  8
1
 62
7
 10
770.0523773622498
 20
245.3934779197849
 30
0
 11
771.2523773622498
 21
244.193477919785
 31
0
  0
LINE
  8
1
 62
7
 10
790.85237736225
 20
244.193477919785
 30
0
 11
792.0523773622498
 21
245.3934779197849
 31
0
  0
LINE
  8
1
 62
7
 10
750.4428656985532
 20
245.393477919785
 30
0
 11
749.2428656985534
 21
244.193477919785
 31
0
  0
LINE
  8
1
 62
7
 10
749.2428656985534
 20
265.4934779197851
 30
0
 11
655.9895993808149
 21
265.4934779197851
 31
0
  0
LINE
  8
1
 62
7
 10
749.2428656985534
 20
244.193477919785
 30
0
 11
652.2338346917245
 21
244.193477919785
 31
0
  0
LINE
  8
1
 62
7
 10
749.2428656985534
 20
265.4934779197851
 30
0
 11
750.4428656985532
 21
264.293477919785
 31
0
  0
LINE
  8
1
 62
3
 10
810.2086884602629
 20
249.193477919785
 30
0
 11
826.008688460263
 21
249.193477919785
 31
0
  0
LINE
  8
1
 62
3
 10
810.2086884602629
 20
257.193477919785
 30
0
 11
826.008688460263
 21
257.193477919785
 31
0
  0
LINE
  8
1
 62
7
 10
810.2086884602629
 20
247.943477919785
 30
0
 11
810.2086884602629
 21
258.443477919785
 31
0
  0
LINE
  8
1
 62
3
  6
DIVIDE
 10
656.9273578512527
 20
293.4968977628426
 30
0
 11
647.0065671189244
 21
237.2332976463574
 31
0
  0
LINE
  8
1
 62
3
  6
DIVIDE
 10
660.9273578512527
 20
293.4968977628426
 30
0
 11
651.0065671189244
 21
237.2332976463574
 31
0
  0
LINE
  8
1
 62
7
 10
655.992221842897
 20
288.193477919785
 30
0
 11
451.6428656985516
 21
288.193477919785
 31
0
  0
LINE
  8
1
 62
7
 10
659.7806294660469
 20
286.9934779197849
 30
0
 11
745.2428656985532
 21
286.9934779197849
 31
0
  0
LINE
  8
1
 62
7
 10
656.4480495306568
 20
268.093477919785
 30
0
 11
745.2428656985532
 21
268.093477919785
 31
0
  0
LINE
  8
1
 62
7
 10
652.2364571538067
 20
266.8934779197849
 30
0
 11
451.6428656985516
 21
266.8934779197849
 31
0
  0
LINE
  8
1
 62
7
 10
651.9895993808149
 20
265.4934779197851
 30
0
 11
451.6428656985516
 21
265.4934779197851
 31
0
  0
LINE
  8
1
 62
7
 10
655.7780070039647
 20
264.293477919785
 30
0
 11
745.2428656985532
 21
264.293477919785
 31
0
  0
LINE
  8
1
 62
7
 10
652.4454270685747
 20
245.393477919785
 30
0
 11
745.2428656985532
 21
245.393477919785
 31
0
  0
LINE
  8
1
 62
7
 10
648.2338346917246
 20
244.193477919785
 30
0
 11
451.6428656985516
 21
244.193477919785
 31
0
  0
ARC
  8
1
 62
7
 10
781.0523773622498
 20
254.8434779197851
 30
0
 40
9.450000000000147
 50
113.0939395383872
 51
66.90606046161282
  0
ARC
  8
1
 62
7
 10
781.0523773622498
 20
277.543477919785
 30
0
 40
9.45000000000012
 50
293.0939395383873
 51
246.9060604616127
  0
ARC
  8
1
 62
7
 10
781.0523773622498
 20
254.8434779197851
 30
0
 40
8.000000000000009
 50
275.3793789911121
 51
84.62062100888791
  0
ARC
  8
1
 62
7
 10
781.0523773622498
 20
254.8434779197851
 30
0
 40
7.999999999999982
 50
95.37937899111209
 51
264.6206210088879
  0
ARC
  8
1
 62
7
 10
781.0523773622498
 20
277.543477919785
 30
0
 40
8.000000000000009
 50
95.37937899111208
 51
264.6206210088879
  0
ARC
  8
1
 62
7
 10
781.0523773622498
 20
277.543477919785
 30
0
 40
8.000000000000009
 50
275.3793789911121
 51
84.62062100888794
  0
ARC
  8
1
 62
7
 10
464.3112482861318
 20
254.843477919785
 30
0
 40
12.8235469619236
 50
132.5298220545195
 51
227.4701779454804
  0
ARC
  8
1
 62
7
 10
464.8055754069935
 20
277.543477919785
 30
0
 40
13.16274094560739
 50
134.1157002694907
 51
225.8842997305097
  0
ARC
  8
1
 62
7
 10
736.2625708529394
 20
254.843477919785
 30
0
 40
13.03641804769077
 50
313.5401048171365
 51
46.45989518286356
  0
ARC
  8
1
 62
7
 10
736.0903228240787
 20
277.543477919785
 30
0
 40
13.15566574024638
 50
314.0839109647242
 51
45.91608903527543
  0
CIRCLE
  8
1
 62
7
 10
781.0523773622498
 20
254.8434779197851
 30
0
 40
9.000000000000052
  0
CIRCLE
  8
1
 62
7
 10
781.0523773622498
 20
277.543477919785
 30
0
 40
8.999999999999938
  0
CIRCLE
  8
1
 62
7
  6
DASHED
 10
700.4428656985519
 20
279.193477919785
 30
0
 40
5.25
  0
CIRCLE
  8
1
 62
3
 10
700.4428656985519
 20
279.193477919785
 30
0
 40
4
  0
CIRCLE
  8
1
 62
7
 10
700.4428656985519
 20
279.193477919785
 30
0
 40
3.199999999999932
  0
CIRCLE
  8
1
 62
7
 10
700.4428656985519
 20
253.193477919785
 30
0
 40
5.25
  0
CIRCLE
  8
1
 62
3
 10
700.4428656985519
 20
253.193477919785
 30
0
 40
4
  0
CIRCLE
  8
1
 62
7
 10
700.4428656985519
 20
253.193477919785
 30
0
 40
3.199999999999932
  0
CIRCLE
  8
1
 62
7
  6
DASHED
 10
600.4428656985519
 20
279.193477919785
 30
0
 40
5.25
  0
CIRCLE
  8
1
 62
3
 10
600.4428656985519
 20
279.193477919785
 30
0
 40
4
  0
CIRCLE
  8
1
 62
7
 10
600.4428656985519
 20
279.193477919785
 30
0
 40
3.199999999999932
  0
CIRCLE
  8
1
 62
7
 10
600.4428656985519
 20
253.193477919785
 30
0
 40
5.25
  0
CIRCLE
  8
1
 62
3
 10
600.4428656985519
 20
253.193477919785
 30
0
 40
4
  0
CIRCLE
  8
1
 62
7
 10
600.4428656985519
 20
253.193477919785
 30
0
 40
3.199999999999932
  0
CIRCLE
  8
1
 62
7
  6
DASHED
 10
500.4428656985519
 20
279.193477919785
 30
0
 40
5.25
  0
CIRCLE
  8
1
 62
3
 10
500.4428656985519
 20
279.193477919785
 30
0
 40
4
  0
CIRCLE
  8
1
 62
7
 10
500.4428656985519
 20
279.193477919785
 30
0
 40
3.199999999999989
  0
CIRCLE
  8
1
 62
7
 10
500.4428656985519
 20
253.193477919785
 30
0
 40
5.25
  0
CIRCLE
  8
1
 62
3
 10
500.4428656985519
 20
253.193477919785
 30
0
 40
4
  0
CIRCLE
  8
1
 62
7
 10
500.4428656985519
 20
253.193477919785
 30
0
 40
3.199999999999989
  0
TEXT
  8
1
 62
2
 10
450.128800160759
 20
315.630220389724
 30
0
 40
5
  1
MODEL : G9A
 41
0.7200000000000001
  7
COMPLEX
  0
TEXT
  8
1
 62
2
 10
776.474832736172
 20
187.727381019313
 30
0
 40
5
  1
UNION TOOL CO.
 41
0.7200000000000001
  7
COMPLEX
  0
ENDSEC
  0
EOF
