  0
SECTION
  2
HEADER
  9
$ACADVER
  1
AC1009
  9
$INSBASE
 10
0
 20
0
  9
$EXTMIN
 10
146.674305350454
 20
2452.25972935687
  9
$EXTMAX
 10
364.099979031277
 20
2547.20708039039
  9
$LIMMIN
 10
146.674305350454
 20
2452.25972935687
  9
$LIMMAX
 10
364.099979031277
 20
2547.20708039039
  9
$VIEWCTR
 10
10
 20
10
  9
$VIEWSIZE
 40
10
  9
$SNAPMODE
 70
0
  9
$SNAPUNIT
 10
1
 20
1
  9
$SNAPBASE
 10
0
 20
0
  9
$SNAPANG
 50
0
  9
$SNAPSTYLE
 70
0
  9
$SNAPISOPAIR
 70
0
  9
$GRIDMODE
 70
0
  9
$GRIDUNIT
 10
0
 20
0
  9
$ORTHOMODE
 70
0
  9
$REGENMODE
 70
1
  9
$FILLMODE
 70
1
  9
$QTEXTMODE
 70
0
  9
$DRAGMODE
 70
2
  9
$LTSCALE
 40
1
  9
$OSMODE
 70
0
  9
$ATTMODE
 70
1
  9
$TEXTSIZE
 40
3.5
  9
$TRACEWID
 40
0.5
  9
$TEXTSTYLE
  7
STANDARD
  9
$CLAYER
  8
0
  9
$CELTYPE
  6
BYLAYER
  9
$CECOLOR
 62
256
  9
$DIMSCALE
 40
1
  9
$DIMASZ
 40
0.18
  9
$DIMEXO
 40
0.0625
  9
$DIMDLI
 40
0.38
  9
$DIMRND
 40
0
  9
$DIMDLE
 40
0
  9
$DIMEXE
 40
0.18
  9
$DIMTP
 40
0
  9
$DIMTM
 40
0
  9
$DIMTXT
 40
0.18
  9
$DIMCEN
 40
0.09
  9
$DIMTSZ
 40
0
  9
$DIMTOL
 70
0
  9
$DIMLIM
 70
0
  9
$DIMTIH
 70
1
  9
$DIMTOH
 70
1
  9
$DIMSE1
 70
0
  9
$DIMSE2
 70
0
  9
$DIMTAD
 70
0
  9
$DIMZIN
 70
0
  9
$DIMBLK
  1

  9
$DIMASO
 70
1
  9
$DIMSHO
 70
1
  9
$DIMPOST
  1

  9
$DIMAPOST
  1

  9
$DIMALT
 70
0
  9
$DIMALTD
 70
2
  9
$DIMALTF
 40
25.4
  9
$DIMLFAC
 40
1
  9
$DIMTOFL
 70
0
  9
$DIMTVP
 40
0
  9
$DIMTIX
 70
0
  9
$DIMSOXD
 70
0
  9
$DIMSAH
 70
0
  9
$DIMBLK1
  1

  9
$DIMBLK2
  1

  9
$DIMSTYLE
  2
*UNNAMED
  9
$DIMCLRD
 70
0
  9
$DIMCLRE
 70
0
  9
$DIMCLRT
 70
0
  9
$DIMTFAC
 40
1
  9
$DIMGAP
 40
0.09
  9
$LUNITS
 70
2
  9
$LUPREC
 70
4
  9
$AXISMODE
 70
0
  9
$AXISUNIT
 10
0
 20
0
  9
$SKETCHINC
 40
0.1
  9
$FILLETRAD
 40
2
  9
$AUNITS
 70
0
  9
$AUPREC
 70
0
  9
$MENU
  1
ACAD
  9
$ELEVATION
 40
0
  9
$THICKNESS
 40
0
  9
$VIEWDIR
 10
0
 20
0
 30
1
  9
$LIMCHECK
 70
0
  9
$BLIPMODE
 70
1
  9
$CHAMFERA
 40
0
  9
$CHAMFERB
 40
0
  9
$FASTZOOM
 70
1
  9
$SKPOLY
 70
0
  9
$ANGBASE
 50
0
  9
$ANGDIR
 70
0
  9
$PDMODE
 70
0
  9
$PDSIZE
 40
0
  9
$PLINEWID
 40
0
  9
$COORDS
 70
2
  0
ENDSEC
  0
SECTION
  2
TABLES
  0
TABLE
  2
DIMSTYLE
 70
0
  0
ENDTAB
  0
TABLE
  2
LTYPE
 70
9
  0
LTYPE
  2
CONTINUOUS
 70
64
  3
Solid line
 72
65
 73
0
 40
0
  0
LTYPE
  2
BORDER
 70
64
  3
__ __ . __ __ .
 72
65
 73
6
 40
10.01302444582737
 49
2.86086412737925
 49
-1.430432063689625
 49
2.86086412737925
 49
-1.430432063689625
 49
0
 49
-1.430432063689625
  0
LTYPE
  2
CENTER
 70
64
  3
____ _ ____ _
 72
65
 73
4
 40
11.443456509517
 49
7.152160318448124
 49
-1.430432063689625
 49
1.430432063689625
 49
-1.430432063689625
  0
LTYPE
  2
DASHDOT
 70
64
  3
__ . __ . __ .
 72
65
 73
4
 40
5.721728254758499
 49
2.86086412737925
 49
-1.430432063689625
 49
0
 49
-1.430432063689625
  0
LTYPE
  2
DASHED
 70
64
  3
__ __ __ __ __
 72
65
 73
2
 40
4.291296191068875
 49
2.86086412737925
 49
-1.430432063689625
  0
LTYPE
  2
DIVIDE
 70
64
  3
__ . . __ . . 
 72
65
 73
6
 40
7.152160318448124
 49
2.86086412737925
 49
-1.430432063689625
 49
0
 49
-1.430432063689625
 49
0
 49
-1.430432063689625
  0
LTYPE
  2
DOT
 70
64
  3
..............
 72
65
 73
4
 40
2.86086412737925
 49
0
 49
-1.430432063689625
 49
0
 49
-1.430432063689625
  0
LTYPE
  2
HIDDEN
 70
64
  3
_ _ _ _ _ _ _
 72
65
 73
2
 40
2.145648095534437
 49
1.430432063689625
 49
-0.7152160318448124
  0
LTYPE
  2
PHANTOM
 70
64
  3
_____ _ _ _____ _ _ 
 72
65
 73
6
 40
14.30432063689625
 49
7.152160318448124
 49
-1.430432063689625
 49
1.430432063689625
 49
-1.430432063689625
 49
1.430432063689625
 49
-1.430432063689625
  0
ENDTAB
  0
TABLE
  2
LAYER
 70
3
  0
LAYER
  2
1
 70
0
 62
7
  6
CONTINUOUS
  0
LAYER
  2
0
 70
0
 62
7
  6
CONTINUOUS
  0
ENDTAB
  0
TABLE
  2
STYLE
 70
4
  0
STYLE
  2
STANDARD
 70
0
 40
0
 41
1
 50
0
 71
0
 42
3.5
  3
txt
  4

  0
STYLE
  2
SIMPLEX
 70
0
 40
0
 41
1
 50
0
 71
0
 42
3.5
  3
simplex
  4

  0
STYLE
  2
COMPLEX
 70
0
 40
0
 41
1
 50
0
 71
0
 42
3.5
  3
complex
  4

  0
STYLE
  2
ITALIC
 70
0
 40
0
 41
1
 50
0
 71
0
 42
3.5
  3
italic
  4

  0
ENDTAB
  0
TABLE
  2
VIEW
 70
0
  0
ENDTAB
  0
ENDSEC
  0
SECTION
  2
BLOCKS
  0
ENDSEC
  0
SECTION
  2
ENTITIES
  0
POINT
  8
1
 62
7
  6
CENTER
 10
358.099979031277
 20
2506.008263214624
 30
0
  0
POINT
  8
1
 62
7
  6
CENTER
 10
352.099979031277
 20
2507.008263214624
 30
0
  0
POINT
  8
1
 62
7
  6
CENTER
 10
325.8094723429715
 20
2506.008263214624
 30
0
  0
POINT
  8
1
 62
7
  6
CENTER
 10
319.8094723429716
 20
2507.008263214624
 30
0
  0
LINE
  8
1
 62
4
  6
CENTER
 10
361.9728710311089
 20
2506.508263214624
 30
0
 11
347.040562279057
 21
2506.508263214624
 31
0
  0
LINE
  8
1
 62
7
 10
300.4750311429908
 20
2504.708263214624
 30
0
 11
300.4750311429908
 21
2492.00725239181
 31
0
  0
LINE
  8
1
 62
7
 10
300.4750311429908
 20
2508.308263214624
 30
0
 11
300.4750311429908
 21
2521.008263214624
 31
0
  0
LINE
  8
1
 62
7
 10
249.7728161657809
 20
2491.008263214624
 30
0
 11
299.4750311429908
 21
2491.008263214624
 31
0
  0
LINE
  8
1
 62
7
 10
252.1355977072746
 20
2504.408263214625
 30
0
 11
297.4540311429907
 21
2504.408263214625
 31
0
  0
LINE
  8
1
 62
7
 10
252.4000881783372
 20
2505.908263214624
 30
0
 11
299.4750311429908
 21
2505.908263214624
 31
0
  0
LINE
  8
1
 62
7
 10
248.8144645787071
 20
2508.608263214625
 30
0
 11
153.4960311429908
 21
2508.608263214624
 31
0
  0
LINE
  8
1
 62
3
  6
DIVIDE
 10
251.7062270623256
 20
2525.008263214624
 30
0
 11
245.1821287761124
 21
2488.008263214624
 31
0
  0
LINE
  8
1
 62
3
  6
DIVIDE
 10
255.7679335098687
 20
2525.008263214624
 30
0
 11
249.2438352236556
 21
2488.008263214624
 31
0
  0
LINE
  8
1
 62
7
 10
302.4750311429908
 20
2508.308263214624
 30
0
 11
300.4750311429908
 21
2508.308263214624
 31
0
  0
LINE
  8
1
 62
7
 10
302.4750311429908
 20
2520.808263214624
 30
0
 11
300.4750311429908
 21
2520.808263214624
 31
0
  0
LINE
  8
1
 62
7
 10
302.4750311429908
 20
2508.308263214624
 30
0
 11
303.4750311429908
 21
2509.308263214624
 31
0
  0
LINE
  8
1
 62
7
 10
303.4750311429908
 20
2519.808263214624
 30
0
 11
302.4750311429908
 21
2520.808263214624
 31
0
  0
LINE
  8
1
 62
7
 10
303.4750311429908
 20
2519.808263214624
 30
0
 11
303.4750311429908
 21
2509.308263214624
 31
0
  0
LINE
  8
1
 62
7
 10
302.4750311429908
 20
2520.808263214624
 30
0
 11
302.4750311429908
 21
2508.308263214624
 31
0
  0
LINE
  8
1
 62
7
 10
302.4750311429908
 20
2504.708263214624
 30
0
 11
302.4750311429908
 21
2492.208263214624
 31
0
  0
LINE
  8
1
 62
7
 10
302.4750311429908
 20
2492.208263214624
 30
0
 11
303.4750311429908
 21
2493.208263214624
 31
0
  0
LINE
  8
1
 62
7
 10
303.4750311429908
 20
2503.708263214624
 30
0
 11
302.4750311429908
 21
2504.708263214624
 31
0
  0
LINE
  8
1
 62
7
 10
300.4750311429908
 20
2492.208263214624
 30
0
 11
302.4750311429908
 21
2492.208263214624
 31
0
  0
LINE
  8
1
 62
7
 10
303.4750311429908
 20
2503.708263214624
 30
0
 11
303.4750311429908
 21
2493.208263214624
 31
0
  0
LINE
  8
1
 62
7
 10
300.4750311429908
 20
2504.708263214624
 30
0
 11
302.4750311429908
 21
2504.708263214624
 31
0
  0
LINE
  8
1
 62
4
  6
CENTER
 10
315.3094723429715
 20
2506.508263214624
 30
0
 11
329.3149468653778
 21
2506.508263214624
 31
0
  0
LINE
  8
1
 62
7
 10
315.3094723429715
 20
2508.108263214625
 30
0
 11
315.3094723429715
 21
2508.608263214625
 31
0
  0
LINE
  8
1
 62
7
 10
315.3094723429715
 20
2504.908263214625
 30
0
 11
315.3094723429715
 21
2504.408263214625
 31
0
  0
LINE
  8
1
 62
7
 10
330.3094723429714
 20
2504.908263214625
 30
0
 11
330.3094723429714
 21
2504.408263214625
 31
0
  0
LINE
  8
1
 62
7
 10
330.3094723429714
 20
2508.608263214625
 30
0
 11
330.3094723429714
 21
2508.108263214625
 31
0
  0
LINE
  8
1
 62
7
 10
316.3094723429714
 20
2505.908263214625
 30
0
 11
315.3094723429715
 21
2504.908263214625
 31
0
  0
LINE
  8
1
 62
7
 10
316.3094723429714
 20
2507.108263214625
 30
0
 11
315.3094723429715
 21
2508.108263214625
 31
0
  0
LINE
  8
1
 62
7
 10
316.3094723429714
 20
2522.008263214624
 30
0
 11
315.3094723429715
 21
2521.008263214624
 31
0
  0
LINE
  8
1
 62
7
 10
330.3094723429714
 20
2521.008263214624
 30
0
 11
329.3094723429714
 21
2522.008263214624
 31
0
  0
LINE
  8
1
 62
7
 10
329.3094723429714
 20
2507.108263214625
 30
0
 11
330.3094723429714
 21
2508.108263214625
 31
0
  0
LINE
  8
1
 62
7
 10
329.3094723429714
 20
2505.908263214625
 30
0
 11
330.3094723429714
 21
2504.908263214625
 31
0
  0
LINE
  8
1
 62
7
 10
330.3094723429714
 20
2492.008263214624
 30
0
 11
329.3094723429714
 21
2491.008263214624
 31
0
  0
LINE
  8
1
 62
7
 10
315.3094723429715
 20
2492.008263214624
 30
0
 11
316.3094723429714
 21
2491.008263214624
 31
0
  0
LINE
  8
1
 62
7
 10
319.1668316558521
 20
2507.108263214625
 30
0
 11
316.3094723429714
 21
2507.108263214625
 31
0
  0
LINE
  8
1
 62
7
 10
326.4521130300908
 20
2507.108263214625
 30
0
 11
329.3094723429714
 21
2507.108263214625
 31
0
  0
LINE
  8
1
 62
7
 10
319.1668316558521
 20
2505.908263214625
 30
0
 11
316.3094723429714
 21
2505.908263214625
 31
0
  0
LINE
  8
1
 62
7
 10
326.4521130300908
 20
2505.908263214625
 30
0
 11
329.3094723429714
 21
2505.908263214625
 31
0
  0
LINE
  8
1
 62
7
 10
330.3094723429714
 20
2508.608263214625
 30
0
 11
330.3094723429714
 21
2521.008263214624
 31
0
  0
LINE
  8
1
 62
7
 10
329.3094723429714
 20
2522.008263214624
 30
0
 11
316.3094723429714
 21
2522.008263214624
 31
0
  0
LINE
  8
1
 62
7
 10
315.3094723429715
 20
2521.008263214624
 30
0
 11
315.3094723429715
 21
2508.608263214625
 31
0
  0
LINE
  8
1
 62
7
 10
315.3094723429715
 20
2492.008263214624
 30
0
 11
315.3094723429715
 21
2504.408263214625
 31
0
  0
LINE
  8
1
 62
7
 10
330.3094723429714
 20
2492.008263214624
 30
0
 11
330.3094723429714
 21
2504.408263214625
 31
0
  0
LINE
  8
1
 62
7
 10
316.3094723429714
 20
2491.008263214624
 30
0
 11
329.3094723429714
 21
2491.008263214624
 31
0
  0
LINE
  8
1
 62
7
 10
362.599979031277
 20
2504.908263214624
 30
0
 11
362.599979031277
 21
2492.008263214624
 31
0
  0
LINE
  8
1
 62
7
 10
150.4750311429907
 20
2521.008263214624
 30
0
 11
151.4750311429907
 21
2522.008263214624
 31
0
  0
LINE
  8
1
 62
7
 10
150.4750311429907
 20
2508.608263214624
 30
0
 11
151.4750311429907
 21
2507.108263214624
 31
0
  0
LINE
  8
1
 62
7
 10
299.4750311429908
 20
2507.108263214624
 30
0
 11
300.4750311429908
 21
2508.608263214624
 31
0
  0
LINE
  8
1
 62
7
 10
300.4750311429908
 20
2521.008263214624
 30
0
 11
299.4750311429908
 21
2522.008263214624
 31
0
  0
LINE
  8
1
 62
3
  6
CENTER
 10
175.4750311429907
 20
2523.608263214624
 30
0
 11
175.4750311429907
 21
2508.408263214624
 31
0
  0
LINE
  8
1
 62
3
  6
CENTER
 10
275.4750311429908
 20
2523.608263214624
 30
0
 11
275.4750311429908
 21
2508.408263214624
 31
0
  0
LINE
  8
1
 62
3
  6
CENTER
 10
283.133397778405
 20
2516.008263214624
 30
0
 11
267.8750311429908
 21
2516.008263214624
 31
0
  0
LINE
  8
1
 62
4
  6
CENTER
 10
147.4750311429906
 20
2506.508263214624
 30
0
 11
303.4750311429908
 21
2506.508263214625
 31
0
  0
LINE
  8
1
 62
3
  6
CENTER
 10
267.8750311429908
 20
2497.008263214624
 30
0
 11
283.0750311429907
 21
2497.008263214624
 31
0
  0
LINE
  8
1
 62
3
  6
CENTER
 10
275.4750311429909
 20
2505.108263214625
 30
0
 11
275.4750311429908
 21
2489.408263214624
 31
0
  0
LINE
  8
1
 62
3
  6
CENTER
 10
167.8750311429907
 20
2497.008263214624
 30
0
 11
183.0750311429908
 21
2497.008263214624
 31
0
  0
LINE
  8
1
 62
3
  6
CENTER
 10
175.4750311429907
 20
2505.108263214625
 30
0
 11
175.4750311429907
 21
2489.408263214624
 31
0
  0
LINE
  8
1
 62
7
 10
299.4750311429908
 20
2491.008263214624
 30
0
 11
300.4750311429908
 21
2492.008263214624
 31
0
  0
LINE
  8
1
 62
7
 10
300.4750311429908
 20
2504.408263214624
 30
0
 11
299.4750311429908
 21
2505.908263214624
 31
0
  0
LINE
  8
1
 62
7
 10
151.4750311429907
 20
2505.908263214624
 30
0
 11
150.4750311429907
 21
2504.408263214624
 31
0
  0
LINE
  8
1
 62
7
 10
151.4750311429907
 20
2491.008263214624
 30
0
 11
150.4750311429907
 21
2492.008263214624
 31
0
  0
LINE
  8
1
 62
7
 10
151.4750311429907
 20
2507.108263214624
 30
0
 11
248.5499741076443
 21
2507.108263214625
 31
0
  0
LINE
  8
1
 62
7
 10
153.4960311429908
 20
2522.008263214624
 30
0
 11
153.4960311429908
 21
2521.008263214624
 31
0
  0
LINE
  8
1
 62
7
 10
151.4750311429907
 20
2522.008263214624
 30
0
 11
251.1772461202003
 21
2522.008263214624
 31
0
  0
LINE
  8
1
 62
7
 10
153.4960311429908
 20
2508.608263214624
 30
0
 11
153.4960311429908
 21
2507.108263214624
 31
0
  0
LINE
  8
1
 62
7
 10
153.4960311429908
 20
2505.908263214624
 30
0
 11
153.4960311429908
 21
2504.408263214625
 31
0
  0
LINE
  8
1
 62
7
 10
151.4750311429907
 20
2505.908263214624
 30
0
 11
248.338381730794
 21
2505.908263214624
 31
0
  0
LINE
  8
1
 62
7
 10
153.4960311429908
 20
2492.008263214625
 30
0
 11
153.4960311429908
 21
2491.008263214624
 31
0
  0
LINE
  8
1
 62
7
 10
151.4750311429907
 20
2491.008263214624
 30
0
 11
245.7111097182379
 21
2491.008263214624
 31
0
  0
LINE
  8
1
 62
7
 10
153.4960311429908
 20
2521.008263214624
 30
0
 11
251.0009191394918
 21
2521.008263214624
 31
0
  0
LINE
  8
1
 62
7
 10
297.4540311429906
 20
2522.008263214624
 30
0
 11
297.4540311429906
 21
2521.008263214624
 31
0
  0
LINE
  8
1
 62
7
 10
299.4750311429908
 20
2522.008263214624
 30
0
 11
255.2389525677434
 21
2522.008263214624
 31
0
  0
LINE
  8
1
 62
7
 10
297.4540311429906
 20
2508.608263214625
 30
0
 11
297.4540311429906
 21
2507.108263214625
 31
0
  0
LINE
  8
1
 62
7
 10
252.6116805551874
 20
2507.108263214625
 30
0
 11
299.4750311429908
 21
2507.108263214624
 31
0
  0
LINE
  8
1
 62
7
 10
297.4540311429906
 20
2505.908263214624
 30
0
 11
297.4540311429907
 21
2504.408263214625
 31
0
  0
LINE
  8
1
 62
7
 10
297.4540311429906
 20
2492.008263214623
 30
0
 11
297.4540311429905
 21
2491.008263214624
 31
0
  0
LINE
  8
1
 62
7
 10
297.4540311429906
 20
2508.608263214625
 30
0
 11
252.8761710262501
 21
2508.608263214625
 31
0
  0
LINE
  8
1
 62
7
 10
153.4960311429908
 20
2504.408263214625
 30
0
 11
248.0738912597315
 21
2504.408263214625
 31
0
  0
LINE
  8
1
 62
7
 10
297.4540311429906
 20
2492.008263214623
 30
0
 11
249.9491431464893
 21
2492.008263214623
 31
0
  0
LINE
  8
1
 62
7
 10
297.4540311429906
 20
2521.008263214624
 30
0
 11
255.0626255870349
 21
2521.008263214624
 31
0
  0
LINE
  8
1
 62
7
 10
153.4960311429908
 20
2492.008263214625
 30
0
 11
245.8874366989463
 21
2492.008263214623
 31
0
  0
LINE
  8
1
 62
7
 10
347.599979031277
 20
2492.258263214624
 30
0
 11
352.7999790312771
 21
2492.258263214624
 31
0
  0
LINE
  8
1
 62
7
 10
348.599979031277
 20
2491.008263214624
 30
0
 11
347.599979031277
 21
2492.008263214624
 31
0
  0
LINE
  8
1
 62
7
 10
348.599979031277
 20
2491.008263214624
 30
0
 11
361.599979031277
 21
2491.008263214624
 31
0
  0
LINE
  8
1
 62
7
 10
361.599979031277
 20
2491.008263214624
 30
0
 11
362.599979031277
 21
2492.008263214624
 31
0
  0
LINE
  8
1
 62
3
 10
352.7999790312771
 20
2494.008263214624
 30
0
 11
362.599979031277
 21
2494.008263214624
 31
0
  0
LINE
  8
1
 62
7
 10
347.599979031277
 20
2504.908263214624
 30
0
 11
348.599979031277
 21
2505.908263214624
 31
0
  0
LINE
  8
1
 62
7
 10
347.599979031277
 20
2504.908263214624
 30
0
 11
347.599979031277
 21
2492.008263214624
 31
0
  0
LINE
  8
1
 62
7
 10
352.7999790312771
 20
2501.758263214624
 30
0
 11
347.599979031277
 21
2501.758263214624
 31
0
  0
LINE
  8
1
 62
3
 10
362.599979031277
 20
2500.008263214624
 30
0
 11
352.7999790312771
 21
2500.008263214624
 31
0
  0
LINE
  8
1
 62
7
 10
362.599979031277
 20
2504.908263214624
 30
0
 11
361.599979031277
 21
2505.908263214624
 31
0
  0
LINE
  8
1
 62
7
 10
361.599979031277
 20
2505.908263214624
 30
0
 11
358.7426197183964
 21
2505.908263214624
 31
0
  0
LINE
  8
1
 62
7
 10
358.7426197183964
 20
2505.908263214624
 30
0
 11
355.099979031277
 21
2502.265622527502
 31
0
  0
LINE
  8
1
 62
7
 10
355.099979031277
 20
2502.265622527502
 30
0
 11
351.522018718473
 21
2505.843582840309
 31
0
  0
LINE
  8
1
 62
7
 10
348.599979031277
 20
2505.908263214624
 30
0
 11
351.4573383441577
 21
2505.908263214624
 31
0
  0
LINE
  8
1
 62
7
 10
362.599979031277
 20
2494.408263214625
 30
0
 11
352.7999790312771
 21
2494.408263214625
 31
0
  0
LINE
  8
1
 62
7
 10
352.7999790312771
 20
2492.258263214624
 30
0
 11
352.7999790312771
 21
2501.758263214624
 31
0
  0
LINE
  8
1
 62
7
 10
362.599979031277
 20
2499.608263214623
 30
0
 11
352.7999790312771
 21
2499.608263214623
 31
0
  0
LINE
  8
1
 62
3
  6
CENTER
 10
364.099979031277
 20
2497.008263214624
 30
0
 11
346.099979031277
 21
2497.008263214624
 31
0
  0
LINE
  8
1
 62
4
  6
CENTER
 10
355.099979031277
 20
2512.2184734231
 30
0
 11
355.099979031277
 21
2501.260018724377
 31
0
  0
LINE
  8
1
 62
3
  6
CENTER
 10
225.4750311429907
 20
2523.608263214624
 30
0
 11
225.4750311429907
 21
2508.408263214624
 31
0
  0
LINE
  8
1
 62
3
  6
CENTER
 10
233.0750311429907
 20
2516.008263214624
 30
0
 11
217.8750311429908
 21
2516.008263214624
 31
0
  0
LINE
  8
1
 62
3
  6
CENTER
 10
217.8750311429908
 20
2497.008263214624
 30
0
 11
233.0750311429907
 21
2497.008263214624
 31
0
  0
LINE
  8
1
 62
3
  6
CENTER
 10
225.4750311429907
 20
2505.108263214625
 30
0
 11
225.4750311429907
 21
2489.408263214624
 31
0
  0
LINE
  8
1
 62
3
  6
CENTER
 10
167.8750311429909
 20
2516.008263214624
 30
0
 11
183.0750311429912
 21
2516.008263214624
 31
0
  0
LINE
  8
1
 62
7
 10
150.4750311429906
 20
2492.00725239181
 30
0
 11
150.4750311429906
 21
2504.708263214624
 31
0
  0
LINE
  8
1
 62
7
 10
150.4750311429907
 20
2521.008263214624
 30
0
 11
150.4750311429906
 21
2508.308263214624
 31
0
  0
LINE
  8
1
 62
7
 10
150.4750311429906
 20
2508.308263214624
 30
0
 11
148.4750311429906
 21
2508.308263214624
 31
0
  0
LINE
  8
1
 62
7
 10
150.4750311429906
 20
2520.808263214624
 30
0
 11
148.4750311429906
 21
2520.808263214624
 31
0
  0
LINE
  8
1
 62
7
 10
147.4750311429906
 20
2509.308263214624
 30
0
 11
148.4750311429906
 21
2508.308263214624
 31
0
  0
LINE
  8
1
 62
7
 10
148.4750311429906
 20
2520.808263214624
 30
0
 11
147.4750311429906
 21
2519.808263214624
 31
0
  0
LINE
  8
1
 62
7
 10
147.4750311429906
 20
2509.308263214624
 30
0
 11
147.4750311429906
 21
2519.808263214624
 31
0
  0
LINE
  8
1
 62
7
 10
148.4750311429906
 20
2508.308263214624
 30
0
 11
148.4750311429906
 21
2520.808263214624
 31
0
  0
LINE
  8
1
 62
7
 10
148.4750311429906
 20
2492.208263214624
 30
0
 11
148.4750311429906
 21
2504.708263214624
 31
0
  0
LINE
  8
1
 62
7
 10
147.4750311429906
 20
2493.208263214624
 30
0
 11
148.4750311429906
 21
2492.208263214624
 31
0
  0
LINE
  8
1
 62
7
 10
148.4750311429906
 20
2504.708263214624
 30
0
 11
147.4750311429906
 21
2503.708263214624
 31
0
  0
LINE
  8
1
 62
7
 10
148.4750311429906
 20
2492.208263214624
 30
0
 11
150.4750311429906
 21
2492.208263214624
 31
0
  0
LINE
  8
1
 62
7
 10
147.4750311429906
 20
2493.208263214624
 30
0
 11
147.4750311429906
 21
2503.708263214624
 31
0
  0
LINE
  8
1
 62
7
 10
148.4750311429906
 20
2504.708263214624
 30
0
 11
150.4750311429906
 21
2504.708263214624
 31
0
  0
LINE
  8
1
 62
7
 10
347.599979031277
 20
2508.108263214624
 30
0
 11
347.599979031277
 21
2521.008263214624
 31
0
  0
LINE
  8
1
 62
7
 10
362.599979031277
 20
2520.758263214624
 30
0
 11
357.3999790312769
 21
2520.758263214624
 31
0
  0
LINE
  8
1
 62
7
 10
361.599979031277
 20
2522.008263214624
 30
0
 11
362.599979031277
 21
2521.008263214624
 31
0
  0
LINE
  8
1
 62
7
 10
361.599979031277
 20
2522.008263214624
 30
0
 11
348.599979031277
 21
2522.008263214624
 31
0
  0
LINE
  8
1
 62
7
 10
348.599979031277
 20
2522.008263214624
 30
0
 11
347.599979031277
 21
2521.008263214624
 31
0
  0
LINE
  8
1
 62
3
 10
357.3999790312769
 20
2519.008263214624
 30
0
 11
347.599979031277
 21
2519.008263214624
 31
0
  0
LINE
  8
1
 62
7
 10
362.599979031277
 20
2508.108263214624
 30
0
 11
361.599979031277
 21
2507.108263214624
 31
0
  0
LINE
  8
1
 62
7
 10
362.599979031277
 20
2508.108263214624
 30
0
 11
362.599979031277
 21
2521.008263214624
 31
0
  0
LINE
  8
1
 62
7
 10
357.3999790312769
 20
2511.258263214624
 30
0
 11
362.599979031277
 21
2511.258263214624
 31
0
  0
LINE
  8
1
 62
3
 10
347.599979031277
 20
2513.008263214624
 30
0
 11
357.3999790312769
 21
2513.008263214624
 31
0
  0
LINE
  8
1
 62
7
 10
347.599979031277
 20
2508.108263214624
 30
0
 11
348.599979031277
 21
2507.108263214624
 31
0
  0
LINE
  8
1
 62
7
 10
348.599979031277
 20
2507.108263214624
 30
0
 11
351.4573383441576
 21
2507.108263214624
 31
0
  0
LINE
  8
1
 62
7
 10
351.4573383441576
 20
2507.108263214624
 30
0
 11
355.0999790312769
 21
2510.750903901745
 31
0
  0
LINE
  8
1
 62
7
 10
355.0999790312769
 20
2510.750903901745
 30
0
 11
358.6779393440809
 21
2507.17294358894
 31
0
  0
LINE
  8
1
 62
7
 10
361.599979031277
 20
2507.108263214624
 30
0
 11
358.7426197183963
 21
2507.108263214624
 31
0
  0
LINE
  8
1
 62
7
 10
347.599979031277
 20
2518.608263214623
 30
0
 11
357.3999790312769
 21
2518.608263214623
 31
0
  0
LINE
  8
1
 62
7
 10
357.3999790312769
 20
2520.758263214624
 30
0
 11
357.3999790312769
 21
2511.258263214624
 31
0
  0
LINE
  8
1
 62
7
 10
347.599979031277
 20
2513.408263214625
 30
0
 11
357.3999790312769
 21
2513.408263214625
 31
0
  0
LINE
  8
1
 62
3
  6
CENTER
 10
346.099979031277
 20
2516.008263214624
 30
0
 11
364.099979031277
 21
2516.008263214624
 31
0
  0
LINE
  8
1
 62
7
 10
355.1141211669005
 20
2509.605390916221
 30
0
 11
354.6226819539759
 21
2510.096830129146
 31
0
  0
LINE
  8
1
 62
7
 10
354.4812605977387
 20
2510.096830129146
 30
0
 11
351.5114121167552
 21
2507.126981648163
 31
0
  0
LINE
  8
1
 62
7
 10
351.5114121167552
 20
2506.985560291925
 30
0
 11
352.0028513296798
 21
2506.494121079001
 31
0
  0
LINE
  8
1
 62
7
 10
358.1971067328742
 20
2506.522405350247
 30
0
 11
358.6885459457988
 21
2506.030966137323
 31
0
  0
LINE
  8
1
 62
7
 10
358.6885459457988
 20
2505.889544781086
 30
0
 11
355.7186974648153
 21
2502.919696300102
 31
0
  0
LINE
  8
1
 62
7
 10
355.577276108578
 20
2502.919696300102
 30
0
 11
355.0858368956534
 21
2503.411135513027
 31
0
  0
LINE
  8
1
 62
7
 10
354.2999790312771
 20
2503.065622527503
 30
0
 11
354.4352986569619
 21
2502.93030290182
 31
0
  0
LINE
  8
1
 62
7
 10
354.6050042844466
 20
2502.93030290182
 30
0
 11
358.6779393440809
 21
2507.003237961454
 31
0
  0
LINE
  8
1
 62
7
 10
355.7646594055925
 20
2510.086223527429
 30
0
 11
355.8999790312769
 21
2509.950903901745
 31
0
  0
LINE
  8
1
 62
7
 10
354.6050042844466
 20
2502.93030290182
 30
0
 11
354.4352986569619
 21
2502.93030290182
 31
0
  0
LINE
  8
1
 62
7
 10
355.7646594055925
 20
2510.086223527429
 30
0
 11
355.5949537781074
 21
2510.086223527428
 31
0
  0
LINE
  8
1
 62
7
 10
351.522018718473
 20
2506.013288467794
 30
0
 11
351.522018718473
 21
2505.843582840309
 31
0
  0
LINE
  8
1
 62
7
 10
351.522018718473
 20
2506.013288467794
 30
0
 11
355.5949537781074
 21
2510.086223527428
 31
0
  0
LINE
  8
1
 62
7
 10
351.522018718473
 20
2505.843582840309
 30
0
 11
351.4573383441577
 21
2505.908263214624
 31
0
  0
LINE
  8
1
 62
7
 10
358.6779393440809
 20
2507.003237961454
 30
0
 11
358.6779393440809
 21
2507.17294358894
 31
0
  0
LINE
  8
1
 62
7
 10
358.6779393440809
 20
2507.17294358894
 30
0
 11
358.7426197183963
 21
2507.108263214624
 31
0
  0
LINE
  8
1
 62
7
 10
358.6779393440809
 20
2507.17294358894
 30
0
 11
354.4352986569619
 21
2502.93030290182
 31
0
  0
LINE
  8
1
 62
7
 10
351.522018718473
 20
2505.843582840309
 30
0
 11
355.7646594055925
 21
2510.086223527429
 31
0
  0
LINE
  8
1
 62
7
 10
355.577276108578
 20
2502.919696300102
 30
0
 11
355.7186974648153
 21
2502.919696300102
 31
0
  0
LINE
  8
1
 62
7
 10
358.6885459457988
 20
2505.889544781086
 30
0
 11
358.6885459457988
 21
2506.030966137323
 31
0
  0
LINE
  8
1
 62
7
 10
354.4812605977387
 20
2510.096830129146
 30
0
 11
354.6226819539759
 21
2510.096830129146
 31
0
  0
LINE
  8
1
 62
7
 10
351.5114121167552
 20
2506.985560291925
 30
0
 11
351.5114121167552
 21
2507.126981648163
 31
0
  0
LINE
  8
1
 62
7
 10
358.6885459457988
 20
2506.030966137323
 30
0
 11
355.577276108578
 21
2502.919696300102
 31
0
  0
LINE
  8
1
 62
7
 10
351.5114121167552
 20
2506.985560291925
 30
0
 11
354.6226819539759
 21
2510.096830129146
 31
0
  0
LINE
  8
1
 62
7
 10
326.4521130300908
 20
2505.908263214625
 30
0
 11
324.8941825578526
 21
2504.350332742385
 31
0
  0
LINE
  8
1
 62
7
 10
319.1668316558521
 20
2507.108263214625
 30
0
 11
320.7247621280901
 21
2508.666193686863
 31
0
  0
LINE
  8
1
 62
7
 10
319.2209054284497
 20
2506.985560291925
 30
0
 11
319.7123446413743
 21
2506.494121079001
 31
0
  0
LINE
  8
1
 62
7
 10
325.9066000445687
 20
2506.522405350247
 30
0
 11
326.3980392574934
 21
2506.030966137323
 31
0
  0
LINE
  8
1
 62
7
 10
326.3980392574934
 20
2505.889544781086
 30
0
 11
324.8680190392041
 21
2504.359524562797
 31
0
  0
LINE
  8
1
 62
7
 10
319.2315120301675
 20
2506.013288467794
 30
0
 11
319.2315120301676
 21
2505.843582840309
 31
0
  0
LINE
  8
1
 62
7
 10
319.2315120301675
 20
2506.013288467794
 30
0
 11
321.6373753824182
 21
2508.419151820045
 31
0
  0
LINE
  8
1
 62
7
 10
319.2315120301676
 20
2505.843582840309
 30
0
 11
319.1668316558521
 21
2505.908263214625
 31
0
  0
LINE
  8
1
 62
7
 10
326.3874326557755
 20
2507.003237961454
 30
0
 11
326.3874326557754
 21
2507.17294358894
 31
0
  0
LINE
  8
1
 62
7
 10
326.3874326557754
 20
2507.17294358894
 30
0
 11
326.4521130300908
 21
2507.108263214625
 31
0
  0
LINE
  8
1
 62
7
 10
326.3874326557754
 20
2507.17294358894
 30
0
 11
323.8376073771947
 21
2504.623118310359
 31
0
  0
LINE
  8
1
 62
7
 10
319.2315120301676
 20
2505.843582840309
 30
0
 11
321.7813373087484
 21
2508.39340811889
 31
0
  0
LINE
  8
1
 62
7
 10
326.3980392574934
 20
2505.889544781086
 30
0
 11
326.3980392574934
 21
2506.030966137323
 31
0
  0
LINE
  8
1
 62
7
 10
319.2209054284497
 20
2506.985560291925
 30
0
 11
319.2209054284497
 21
2507.126981648163
 31
0
  0
LINE
  8
1
 62
7
 10
326.3980392574934
 20
2506.030966137323
 30
0
 11
324.7623904056629
 21
2504.395317285493
 31
0
  0
LINE
  8
1
 62
7
 10
319.2209054284497
 20
2506.985560291925
 30
0
 11
320.8565542802804
 21
2508.621209143756
 31
0
  0
LINE
  8
1
 62
7
 10
320.7509256467392
 20
2508.657001866452
 30
0
 11
319.2209054284497
 21
2507.126981648163
 31
0
  0
LINE
  8
1
 62
7
 10
324.8941825578526
 20
2508.666193686863
 30
0
 11
326.3874326557754
 21
2507.17294358894
 31
0
  0
LINE
  8
1
 62
7
 10
320.7247621280901
 20
2504.350332742385
 30
0
 11
319.2315120301676
 21
2505.843582840309
 31
0
  0
LINE
  8
1
 62
7
 10
323.9815693035252
 20
2504.597374609204
 30
0
 11
326.3874326557755
 21
2507.003237961454
 31
0
  0
LINE
  8
1
 62
7
 10
320.6094723429713
 20
2498.130268313053
 30
0
 11
320.6094723429713
 21
2498.132886572793
 31
0
  0
LINE
  8
1
 62
7
 10
321.8681556068474
 20
2498.110916174698
 30
0
 11
320.6094723429713
 21
2498.132886572793
 31
0
  0
LINE
  8
1
 62
7
 10
322.2791422570814
 20
2497.927933128735
 30
0
 11
321.8681556068474
 21
2498.110916174698
 31
0
  0
LINE
  8
1
 62
7
 10
322.4621253030444
 20
2497.5169464785
 30
0
 11
322.2791422570814
 21
2497.927933128735
 31
0
  0
LINE
  8
1
 62
7
 10
322.4840957011394
 20
2496.258263214625
 30
0
 11
322.4621253030444
 21
2497.5169464785
 31
0
  0
LINE
  8
1
 62
7
 10
322.8094723429714
 20
2496.258263214625
 30
0
 11
322.4840957011394
 21
2496.258263214625
 31
0
  0
LINE
  8
1
 62
7
 10
325.0094723429714
 20
2498.458263214625
 30
0
 11
325.0094723429714
 21
2498.132886572793
 31
0
  0
LINE
  8
1
 62
7
 10
325.0094723429714
 20
2498.132886572793
 30
0
 11
323.7507890790954
 21
2498.110916174698
 31
0
  0
LINE
  8
1
 62
7
 10
323.7507890790954
 20
2498.110916174698
 30
0
 11
323.3398024288614
 21
2497.927933128735
 31
0
  0
LINE
  8
1
 62
7
 10
323.3398024288614
 20
2497.927933128735
 30
0
 11
323.1568193828983
 21
2497.5169464785
 31
0
  0
LINE
  8
1
 62
7
 10
323.1568193828983
 20
2497.5169464785
 30
0
 11
323.1348489848034
 21
2496.258263214625
 31
0
  0
LINE
  8
1
 62
7
 10
323.1348489848034
 20
2496.258263214625
 30
0
 11
322.8094723429714
 21
2496.258263214625
 31
0
  0
LINE
  8
1
 62
7
 10
320.6094723429713
 20
2498.132886572793
 30
0
 11
320.6094723429713
 21
2498.783639856457
 31
0
  0
LINE
  8
1
 62
7
 10
320.6094723429713
 20
2498.783639856457
 30
0
 11
321.8681556068474
 21
2498.805610254552
 31
0
  0
LINE
  8
1
 62
7
 10
321.8681556068474
 20
2498.805610254552
 30
0
 11
322.2791422570814
 21
2498.988593300514
 31
0
  0
LINE
  8
1
 62
7
 10
322.2791422570814
 20
2498.988593300514
 30
0
 11
322.4621253030444
 21
2499.399579950749
 31
0
  0
LINE
  8
1
 62
7
 10
322.4621253030444
 20
2499.399579950749
 30
0
 11
322.4840957011394
 21
2500.658263214625
 31
0
  0
LINE
  8
1
 62
7
 10
322.4840957011394
 20
2500.658263214625
 30
0
 11
322.8094723429714
 21
2500.658263214625
 31
0
  0
LINE
  8
1
 62
7
 10
325.0094723429714
 20
2498.783639856457
 30
0
 11
325.0094723429714
 21
2498.458263214625
 31
0
  0
LINE
  8
1
 62
7
 10
323.7507890790954
 20
2498.805610254552
 30
0
 11
325.0094723429714
 21
2498.783639856457
 31
0
  0
LINE
  8
1
 62
7
 10
323.3398024288614
 20
2498.988593300514
 30
0
 11
323.7507890790954
 21
2498.805610254552
 31
0
  0
LINE
  8
1
 62
7
 10
323.1568193828983
 20
2499.399579950749
 30
0
 11
323.3398024288614
 21
2498.988593300514
 31
0
  0
LINE
  8
1
 62
7
 10
323.1348489848034
 20
2500.658263214625
 30
0
 11
323.1568193828983
 21
2499.399579950749
 31
0
  0
LINE
  8
1
 62
7
 10
322.8094723429714
 20
2500.658263214625
 30
0
 11
323.1348489848034
 21
2500.658263214625
 31
0
  0
LINE
  8
1
 62
7
 10
320.6094723429713
 20
2514.230268313052
 30
0
 11
320.6094723429713
 21
2514.232886572791
 31
0
  0
LINE
  8
1
 62
7
 10
321.8681556068474
 20
2514.210916174696
 30
0
 11
320.6094723429713
 21
2514.232886572791
 31
0
  0
LINE
  8
1
 62
7
 10
322.2791422570814
 20
2514.027933128733
 30
0
 11
321.8681556068474
 21
2514.210916174696
 31
0
  0
LINE
  8
1
 62
7
 10
322.4621253030444
 20
2513.616946478499
 30
0
 11
322.2791422570814
 21
2514.027933128733
 31
0
  0
LINE
  8
1
 62
7
 10
322.4840957011394
 20
2512.358263214623
 30
0
 11
322.4621253030444
 21
2513.616946478499
 31
0
  0
LINE
  8
1
 62
7
 10
322.8094723429714
 20
2512.358263214623
 30
0
 11
322.4840957011394
 21
2512.358263214623
 31
0
  0
LINE
  8
1
 62
7
 10
325.0094723429714
 20
2514.558263214624
 30
0
 11
325.0094723429714
 21
2514.232886572791
 31
0
  0
LINE
  8
1
 62
7
 10
325.0094723429714
 20
2514.232886572791
 30
0
 11
323.7507890790954
 21
2514.210916174696
 31
0
  0
LINE
  8
1
 62
7
 10
323.7507890790954
 20
2514.210916174696
 30
0
 11
323.3398024288614
 21
2514.027933128733
 31
0
  0
LINE
  8
1
 62
7
 10
323.3398024288614
 20
2514.027933128733
 30
0
 11
323.1568193828983
 21
2513.616946478499
 31
0
  0
LINE
  8
1
 62
7
 10
323.1568193828983
 20
2513.616946478499
 30
0
 11
323.1348489848034
 21
2512.358263214623
 31
0
  0
LINE
  8
1
 62
7
 10
323.1348489848034
 20
2512.358263214623
 30
0
 11
322.8094723429714
 21
2512.358263214623
 31
0
  0
LINE
  8
1
 62
7
 10
320.6094723429713
 20
2514.232886572791
 30
0
 11
320.6094723429713
 21
2514.883639856455
 31
0
  0
LINE
  8
1
 62
7
 10
320.6094723429713
 20
2514.883639856455
 30
0
 11
321.8681556068474
 21
2514.905610254551
 31
0
  0
LINE
  8
1
 62
7
 10
321.8681556068474
 20
2514.905610254551
 30
0
 11
322.2791422570814
 21
2515.088593300513
 31
0
  0
LINE
  8
1
 62
7
 10
322.2791422570814
 20
2515.088593300513
 30
0
 11
322.4621253030444
 21
2515.499579950747
 31
0
  0
LINE
  8
1
 62
7
 10
322.4621253030444
 20
2515.499579950747
 30
0
 11
322.4840957011394
 21
2516.758263214624
 31
0
  0
LINE
  8
1
 62
7
 10
322.4840957011394
 20
2516.758263214624
 30
0
 11
322.8094723429714
 21
2516.758263214624
 31
0
  0
LINE
  8
1
 62
7
 10
325.0094723429714
 20
2514.883639856455
 30
0
 11
325.0094723429714
 21
2514.558263214624
 31
0
  0
LINE
  8
1
 62
7
 10
323.7507890790954
 20
2514.905610254551
 30
0
 11
325.0094723429714
 21
2514.883639856455
 31
0
  0
LINE
  8
1
 62
7
 10
323.3398024288614
 20
2515.088593300513
 30
0
 11
323.7507890790954
 21
2514.905610254551
 31
0
  0
LINE
  8
1
 62
7
 10
323.1568193828983
 20
2515.499579950747
 30
0
 11
323.3398024288614
 21
2515.088593300513
 31
0
  0
LINE
  8
1
 62
7
 10
323.1348489848034
 20
2516.758263214624
 30
0
 11
323.1568193828983
 21
2515.499579950747
 31
0
  0
LINE
  8
1
 62
7
 10
322.8094723429714
 20
2516.758263214624
 30
0
 11
323.1348489848034
 21
2516.758263214624
 31
0
  0
ARC
  8
1
 62
7
 10
288.978910472495
 20
2514.808263214624
 30
0
 40
10.50084141292725
 50
323.8125514980897
 51
36.18744850191634
  0
ARC
  8
1
 62
7
 10
288.9574182695614
 20
2498.208263214625
 30
0
 40
10.51819520264492
 50
323.8816756846551
 51
36.11832431533853
  0
ARC
  8
1
 62
7
 10
161.9642658269661
 20
2514.808263214624
 30
0
 40
10.49528459180054
 50
143.7903561386802
 51
216.2096438613178
  0
ARC
  8
1
 62
7
 10
161.9286051955251
 20
2498.208263214625
 30
0
 40
10.46653262315072
 50
143.6750356183804
 51
216.3249643816176
  0
CIRCLE
  8
1
 62
7
  6
DASHED
 10
175.4750311429907
 20
2516.008263214624
 30
0
 40
4.75
  0
CIRCLE
  8
1
 62
7
  6
DASHED
 10
275.4750311429909
 20
2516.008263214624
 30
0
 40
4.75
  0
CIRCLE
  8
1
 62
3
 10
175.4750311429907
 20
2516.008263214624
 30
0
 40
2.999999999999938
  0
CIRCLE
  8
1
 62
7
 10
175.4750311429907
 20
2516.008263214624
 30
0
 40
2.399999999999892
  0
CIRCLE
  8
1
 62
3
 10
275.4750311429909
 20
2516.008263214624
 30
0
 40
3
  0
CIRCLE
  8
1
 62
7
 10
275.4750311429909
 20
2516.008263214624
 30
0
 40
2.400000000000091
  0
CIRCLE
  8
1
 62
7
 10
275.4750311429909
 20
2497.008263214624
 30
0
 40
2.400000000000091
  0
CIRCLE
  8
1
 62
3
 10
275.4750311429909
 20
2497.008263214624
 30
0
 40
3
  0
CIRCLE
  8
1
 62
7
 10
175.4750311429907
 20
2497.008263214624
 30
0
 40
2.399999999999892
  0
CIRCLE
  8
1
 62
3
 10
175.4750311429907
 20
2497.008263214624
 30
0
 40
3
  0
CIRCLE
  8
1
 62
7
 10
275.4750311429909
 20
2497.008263214624
 30
0
 40
4.75
  0
CIRCLE
  8
1
 62
7
 10
175.4750311429907
 20
2497.008263214624
 30
0
 40
4.75
  0
CIRCLE
  8
1
 62
7
  6
DASHED
 10
225.4750311429907
 20
2516.008263214624
 30
0
 40
4.75
  0
CIRCLE
  8
1
 62
3
 10
225.4750311429907
 20
2516.008263214624
 30
0
 40
3
  0
CIRCLE
  8
1
 62
7
 10
225.4750311429907
 20
2516.008263214624
 30
0
 40
2.400000000000006
  0
CIRCLE
  8
1
 62
7
 10
225.4750311429907
 20
2497.008263214624
 30
0
 40
2.400000000000006
  0
CIRCLE
  8
1
 62
3
 10
225.4750311429907
 20
2497.008263214624
 30
0
 40
3
  0
CIRCLE
  8
1
 62
7
 10
225.4750311429907
 20
2497.008263214624
 30
0
 40
4.75
  0
CIRCLE
  8
1
 62
7
 10
322.8094723429714
 20
2514.558263214624
 30
0
 40
6.249999999999544
  0
CIRCLE
  8
1
 62
7
 10
322.8094723429714
 20
2498.458263214625
 30
0
 40
6.249999999999091
  0
CIRCLE
  8
1
 62
7
 10
322.8094723429714
 20
2498.458263214625
 30
0
 40
5.24999999999892
  0
CIRCLE
  8
1
 62
7
 10
322.8094723429714
 20
2514.558263214624
 30
0
 40
5.25
  0
TEXT
  8
1
 62
2
 10
304.166965463734
 20
2452.25972935687
 30
0
 40
3.5
  1
UNION TOOL CO.
 41
0.72
  7
COMPLEX
  0
TEXT
  8
1
 62
2
 10
146.674305350454
 20
2543.70708039039
 30
0
 40
3.5
  1
MODEL : G6A
 41
0.72
  7
COMPLEX
  0
ENDSEC
  0
EOF
