  0
SECTION
  2
HEADER
  9
$ACADVER
  1
AC1009
  9
$INSBASE
 10
0
 20
0
  9
$EXTMIN
 10
855.3809075879771
 20
1595.62488476824
  9
$EXTMAX
 10
1072.34106141992
 20
1684.14299050587
  9
$LIMMIN
 10
855.3809075879771
 20
1595.62488476824
  9
$LIMMAX
 10
1072.34106141992
 20
1684.14299050587
  9
$VIEWCTR
 10
10
 20
10
  9
$VIEWSIZE
 40
10
  9
$SNAPMODE
 70
0
  9
$SNAPUNIT
 10
1
 20
1
  9
$SNAPBASE
 10
0
 20
0
  9
$SNAPANG
 50
0
  9
$SNAPSTYLE
 70
0
  9
$SNAPISOPAIR
 70
0
  9
$GRIDMODE
 70
0
  9
$GRIDUNIT
 10
0
 20
0
  9
$ORTHOMODE
 70
0
  9
$REGENMODE
 70
1
  9
$FILLMODE
 70
1
  9
$QTEXTMODE
 70
0
  9
$DRAGMODE
 70
2
  9
$LTSCALE
 40
1
  9
$OSMODE
 70
0
  9
$ATTMODE
 70
1
  9
$TEXTSIZE
 40
3.5
  9
$TRACEWID
 40
0.5
  9
$TEXTSTYLE
  7
STANDARD
  9
$CLAYER
  8
0
  9
$CELTYPE
  6
BYLAYER
  9
$CECOLOR
 62
256
  9
$DIMSCALE
 40
1
  9
$DIMASZ
 40
0.18
  9
$DIMEXO
 40
0.0625
  9
$DIMDLI
 40
0.38
  9
$DIMRND
 40
0
  9
$DIMDLE
 40
0
  9
$DIMEXE
 40
0.18
  9
$DIMTP
 40
0
  9
$DIMTM
 40
0
  9
$DIMTXT
 40
0.18
  9
$DIMCEN
 40
0.09
  9
$DIMTSZ
 40
0
  9
$DIMTOL
 70
0
  9
$DIMLIM
 70
0
  9
$DIMTIH
 70
1
  9
$DIMTOH
 70
1
  9
$DIMSE1
 70
0
  9
$DIMSE2
 70
0
  9
$DIMTAD
 70
0
  9
$DIMZIN
 70
0
  9
$DIMBLK
  1

  9
$DIMASO
 70
1
  9
$DIMSHO
 70
1
  9
$DIMPOST
  1

  9
$DIMAPOST
  1

  9
$DIMALT
 70
0
  9
$DIMALTD
 70
2
  9
$DIMALTF
 40
25.4
  9
$DIMLFAC
 40
1
  9
$DIMTOFL
 70
0
  9
$DIMTVP
 40
0
  9
$DIMTIX
 70
0
  9
$DIMSOXD
 70
0
  9
$DIMSAH
 70
0
  9
$DIMBLK1
  1

  9
$DIMBLK2
  1

  9
$DIMSTYLE
  2
*UNNAMED
  9
$DIMCLRD
 70
0
  9
$DIMCLRE
 70
0
  9
$DIMCLRT
 70
0
  9
$DIMTFAC
 40
1
  9
$DIMGAP
 40
0.09
  9
$LUNITS
 70
2
  9
$LUPREC
 70
4
  9
$AXISMODE
 70
0
  9
$AXISUNIT
 10
0
 20
0
  9
$SKETCHINC
 40
0.1
  9
$FILLETRAD
 40
2
  9
$AUNITS
 70
0
  9
$AUPREC
 70
0
  9
$MENU
  1
ACAD
  9
$ELEVATION
 40
0
  9
$THICKNESS
 40
0
  9
$VIEWDIR
 10
0
 20
0
 30
1
  9
$LIMCHECK
 70
0
  9
$BLIPMODE
 70
1
  9
$CHAMFERA
 40
0
  9
$CHAMFERB
 40
0
  9
$FASTZOOM
 70
1
  9
$SKPOLY
 70
0
  9
$ANGBASE
 50
0
  9
$ANGDIR
 70
0
  9
$PDMODE
 70
0
  9
$PDSIZE
 40
0
  9
$PLINEWID
 40
0
  9
$COORDS
 70
2
  0
ENDSEC
  0
SECTION
  2
TABLES
  0
TABLE
  2
DIMSTYLE
 70
0
  0
ENDTAB
  0
TABLE
  2
LTYPE
 70
9
  0
LTYPE
  2
CONTINUOUS
 70
64
  3
Solid line
 72
65
 73
0
 40
0
  0
LTYPE
  2
BORDER
 70
64
  3
__ __ . __ __ .
 72
65
 73
6
 40
9.991586031734212
 49
2.854738866209775
 49
-1.427369433104887
 49
2.854738866209775
 49
-1.427369433104887
 49
0
 49
-1.427369433104887
  0
LTYPE
  2
CENTER
 70
64
  3
____ _ ____ _
 72
65
 73
4
 40
11.4189554648391
 49
7.136847165524437
 49
-1.427369433104887
 49
1.427369433104887
 49
-1.427369433104887
  0
LTYPE
  2
DASHDOT
 70
64
  3
__ . __ . __ .
 72
65
 73
4
 40
5.70947773241955
 49
2.854738866209775
 49
-1.427369433104887
 49
0
 49
-1.427369433104887
  0
LTYPE
  2
DASHED
 70
64
  3
__ __ __ __ __
 72
65
 73
2
 40
4.282108299314662
 49
2.854738866209775
 49
-1.427369433104887
  0
LTYPE
  2
DIVIDE
 70
64
  3
__ . . __ . . 
 72
65
 73
6
 40
7.136847165524437
 49
2.854738866209775
 49
-1.427369433104887
 49
0
 49
-1.427369433104887
 49
0
 49
-1.427369433104887
  0
LTYPE
  2
DOT
 70
64
  3
..............
 72
65
 73
4
 40
2.854738866209775
 49
0
 49
-1.427369433104887
 49
0
 49
-1.427369433104887
  0
LTYPE
  2
HIDDEN
 70
64
  3
_ _ _ _ _ _ _
 72
65
 73
2
 40
2.141054149657331
 49
1.427369433104887
 49
-0.7136847165524437
  0
LTYPE
  2
PHANTOM
 70
64
  3
_____ _ _ _____ _ _ 
 72
65
 73
6
 40
14.27369433104887
 49
7.136847165524437
 49
-1.427369433104887
 49
1.427369433104887
 49
-1.427369433104887
 49
1.427369433104887
 49
-1.427369433104887
  0
ENDTAB
  0
TABLE
  2
LAYER
 70
3
  0
LAYER
  2
1
 70
0
 62
7
  6
CONTINUOUS
  0
LAYER
  2
0
 70
0
 62
7
  6
CONTINUOUS
  0
ENDTAB
  0
TABLE
  2
STYLE
 70
4
  0
STYLE
  2
STANDARD
 70
0
 40
0
 41
1
 50
0
 71
0
 42
3.5
  3
txt
  4

  0
STYLE
  2
SIMPLEX
 70
0
 40
0
 41
1
 50
0
 71
0
 42
3.5
  3
simplex
  4

  0
STYLE
  2
COMPLEX
 70
0
 40
0
 41
1
 50
0
 71
0
 42
3.5
  3
complex
  4

  0
STYLE
  2
ITALIC
 70
0
 40
0
 41
1
 50
0
 71
0
 42
3.5
  3
italic
  4

  0
ENDTAB
  0
TABLE
  2
VIEW
 70
0
  0
ENDTAB
  0
ENDSEC
  0
SECTION
  2
BLOCKS
  0
ENDSEC
  0
SECTION
  2
ENTITIES
  0
POINT
  8
1
 62
7
  6
CENTER
 10
1066.34106141992
 20
1644.217225100049
 30
0
  0
LINE
  8
1
 62
3
  6
CENTER
 10
980.1222329139251
 20
1653.217225100049
 30
0
 11
995.322232913925
 21
1653.217225100049
 31
0
  0
LINE
  8
1
 62
7
 10
1035.500951607469
 20
1643.66921734463
 30
0
 11
1036.918721947192
 21
1642.251447004907
 31
0
  0
LINE
  8
1
 62
4
  6
CENTER
 10
1036.077243634136
 20
1644.217225100049
 30
0
 11
1046.66022920011
 21
1644.217225100049
 31
0
  0
LINE
  8
1
 62
7
 10
1036.077243634136
 20
1644.217225100049
 30
0
 11
1035.500951607469
 21
1643.66921734463
 31
0
  0
LINE
  8
1
 62
7
 10
1042.81950679275
 20
1644.765232855469
 30
0
 11
1042.257356901707
 21
1644.203082964425
 31
0
  0
LINE
  8
1
 62
4
  6
CENTER
 10
1031.66022920011
 20
1644.217225100049
 30
0
 11
1036.077243634136
 21
1644.217225100049
 31
0
  0
LINE
  8
1
 62
7
 10
1032.66022920011
 20
1643.617225100049
 30
0
 11
1031.66022920011
 21
1642.617225100049
 31
0
  0
LINE
  8
1
 62
7
 10
1032.66022920011
 20
1644.817225100049
 30
0
 11
1031.66022920011
 21
1645.817225100049
 31
0
  0
LINE
  8
1
 62
7
 10
1032.66022920011
 20
1659.217225100049
 30
0
 11
1031.66022920011
 21
1658.217225100049
 31
0
  0
LINE
  8
1
 62
7
 10
1046.66022920011
 20
1658.217225100049
 30
0
 11
1045.66022920011
 21
1659.217225100049
 31
0
  0
LINE
  8
1
 62
7
 10
1045.66022920011
 20
1644.817225100049
 30
0
 11
1046.66022920011
 21
1645.817225100049
 31
0
  0
LINE
  8
1
 62
7
 10
1045.66022920011
 20
1643.617225100049
 30
0
 11
1046.66022920011
 21
1642.617225100049
 31
0
  0
LINE
  8
1
 62
7
 10
1046.66022920011
 20
1630.217225100049
 30
0
 11
1045.66022920011
 21
1629.217225100049
 31
0
  0
LINE
  8
1
 62
7
 10
1031.66022920011
 20
1630.217225100049
 30
0
 11
1032.66022920011
 21
1629.217225100049
 31
0
  0
LINE
  8
1
 62
7
 10
1042.802869887229
 20
1644.817225100049
 30
0
 11
1045.66022920011
 21
1644.817225100049
 31
0
  0
LINE
  8
1
 62
7
 10
1042.802869887229
 20
1643.617225100049
 30
0
 11
1045.66022920011
 21
1643.617225100049
 31
0
  0
LINE
  8
1
 62
7
 10
1046.66022920011
 20
1645.817225100049
 30
0
 11
1046.66022920011
 21
1658.217225100049
 31
0
  0
LINE
  8
1
 62
7
 10
1045.66022920011
 20
1659.217225100049
 30
0
 11
1032.66022920011
 21
1659.217225100049
 31
0
  0
LINE
  8
1
 62
7
 10
1031.66022920011
 20
1658.217225100049
 30
0
 11
1031.66022920011
 21
1645.817225100049
 31
0
  0
LINE
  8
1
 62
7
 10
1031.66022920011
 20
1630.217225100049
 30
0
 11
1031.66022920011
 21
1642.617225100049
 31
0
  0
LINE
  8
1
 62
7
 10
1046.66022920011
 20
1630.217225100049
 30
0
 11
1046.66022920011
 21
1642.617225100049
 31
0
  0
LINE
  8
1
 62
7
 10
1032.66022920011
 20
1629.217225100049
 30
0
 11
1045.66022920011
 21
1629.217225100049
 31
0
  0
LINE
  8
1
 62
7
 10
1041.427232264765
 20
1642.241587477585
 30
0
 11
1042.802869887229
 21
1643.617225100049
 31
0
  0
LINE
  8
1
 62
7
 10
1070.84106141992
 20
1630.217225100049
 30
0
 11
1070.84106141992
 21
1632.217225100049
 31
0
  0
LINE
  8
1
 62
7
 10
1070.84106141992
 20
1637.817225100049
 30
0
 11
1070.84106141992
 21
1638.217225100049
 31
0
  0
LINE
  8
1
 62
7
 10
1070.84106141992
 20
1632.617225100049
 30
0
 11
1070.84106141992
 21
1637.817225100049
 31
0
  0
LINE
  8
1
 62
7
 10
1070.84106141992
 20
1632.217225100049
 30
0
 11
1070.84106141992
 21
1632.617225100049
 31
0
  0
LINE
  8
1
 62
7
 10
1070.84106141992
 20
1638.217225100049
 30
0
 11
1070.84106141992
 21
1642.617225100049
 31
0
  0
LINE
  8
1
 62
7
 10
862.7222329139252
 20
1658.217225100049
 30
0
 11
863.7222329139252
 21
1659.217225100049
 31
0
  0
LINE
  8
1
 62
7
 10
862.7222329139252
 20
1645.817225100049
 30
0
 11
863.7222329139252
 21
1644.817225100049
 31
0
  0
LINE
  8
1
 62
7
 10
1011.722232913925
 20
1644.817225100049
 30
0
 11
1012.722232913925
 21
1645.817225100049
 31
0
  0
LINE
  8
1
 62
7
 10
1012.722232913925
 20
1658.217225100049
 30
0
 11
1011.722232913925
 21
1659.217225100049
 31
0
  0
LINE
  8
1
 62
3
  6
CENTER
 10
887.7222329139252
 20
1660.817225100049
 30
0
 11
887.7222329139252
 21
1645.617225100049
 31
0
  0
LINE
  8
1
 62
3
  6
CENTER
 10
895.3222329139251
 20
1653.217225100049
 30
0
 11
880.1222329139251
 21
1653.217225100049
 31
0
  0
LINE
  8
1
 62
3
  6
CENTER
 10
937.7222329139252
 20
1660.817225100049
 30
0
 11
937.7222329139252
 21
1645.617225100049
 31
0
  0
LINE
  8
1
 62
3
  6
CENTER
 10
945.3222329139251
 20
1653.217225100049
 30
0
 11
930.1222329139251
 21
1653.217225100049
 31
0
  0
LINE
  8
1
 62
3
  6
CENTER
 10
987.7222329139252
 20
1660.817225100049
 30
0
 11
987.7222329139252
 21
1645.617225100049
 31
0
  0
LINE
  8
1
 62
7
 10
862.7222329139252
 20
1658.267225100049
 30
0
 11
862.7222329139252
 21
1645.767225100049
 31
0
  0
LINE
  8
1
 62
4
  6
CENTER
 10
859.7222329139252
 20
1644.217225100049
 30
0
 11
1015.722232913925
 21
1644.217225100049
 31
0
  0
LINE
  8
1
 62
7
 10
863.7222329139252
 20
1629.217225100049
 30
0
 11
959.9184289182338
 21
1629.217225100049
 31
0
  0
LINE
  8
1
 62
7
 10
1012.722232913925
 20
1642.667225100049
 30
0
 11
1012.722232913925
 21
1630.167225100049
 31
0
  0
LINE
  8
1
 62
7
 10
862.7222329139252
 20
1642.667225100049
 30
0
 11
862.7222329139252
 21
1630.167225100049
 31
0
  0
LINE
  8
1
 62
3
  6
CENTER
 10
980.122232913925
 20
1635.217225100049
 30
0
 11
995.3222329139248
 21
1635.217225100049
 31
0
  0
LINE
  8
1
 62
3
  6
CENTER
 10
987.7222329139249
 20
1642.817225100049
 30
0
 11
987.7222329139249
 21
1627.617225100049
 31
0
  0
LINE
  8
1
 62
3
  6
CENTER
 10
930.1222329139251
 20
1635.217225100049
 30
0
 11
945.3222329139251
 21
1635.217225100049
 31
0
  0
LINE
  8
1
 62
3
  6
CENTER
 10
937.7222329139252
 20
1642.817225100049
 30
0
 11
937.7222329139252
 21
1627.617225100049
 31
0
  0
LINE
  8
1
 62
3
  6
CENTER
 10
880.1222329139251
 20
1635.217225100049
 30
0
 11
895.3222329139251
 21
1635.217225100049
 31
0
  0
LINE
  8
1
 62
3
  6
CENTER
 10
887.7222329139252
 20
1642.817225100049
 30
0
 11
887.7222329139252
 21
1627.617225100049
 31
0
  0
LINE
  8
1
 62
7
 10
1011.722232913925
 20
1629.217225100049
 30
0
 11
1012.722232913925
 21
1630.217225100049
 31
0
  0
LINE
  8
1
 62
7
 10
1012.722232913925
 20
1642.617225100049
 30
0
 11
1011.722232913925
 21
1643.617225100049
 31
0
  0
LINE
  8
1
 62
7
 10
863.7222329139252
 20
1643.617225100049
 30
0
 11
862.7222329139252
 21
1642.617225100049
 31
0
  0
LINE
  8
1
 62
7
 10
863.7222329139252
 20
1629.217225100049
 30
0
 11
862.7222329139252
 21
1630.217225100049
 31
0
  0
LINE
  8
1
 62
6
  6
DIVIDE
 10
975.0200735983051
 20
1666.258813798147
 30
0
 11
962.9525101336934
 21
1621.222053824654
 31
0
  0
LINE
  8
1
 62
6
  6
DIVIDE
 10
957.776129231643
 20
1621.222053824654
 30
0
 11
969.8436926962547
 21
1666.258813798147
 31
0
  0
LINE
  8
1
 62
7
 10
967.9569046911673
 20
1659.217225100049
 30
0
 11
863.7222329139252
 21
1659.217225100049
 31
0
  0
LINE
  8
1
 62
7
 10
968.9532781912924
 20
1643.617225100049
 30
0
 11
1011.722232913925
 21
1643.617225100049
 31
0
  0
LINE
  8
1
 62
7
 10
965.0948098202841
 20
1629.217225100049
 30
0
 11
1011.722232913925
 21
1629.217225100049
 31
0
  0
LINE
  8
1
 62
7
 10
865.7432329139251
 20
1659.217225100049
 30
0
 11
865.7432329139251
 21
1658.217225100049
 31
0
  0
LINE
  8
1
 62
7
 10
865.7432329139251
 20
1645.817225100049
 30
0
 11
865.7432329139251
 21
1644.817225100049
 31
0
  0
LINE
  8
1
 62
7
 10
863.7222329139252
 20
1644.817225100049
 30
0
 11
964.0984363201592
 21
1644.817225100049
 31
0
  0
LINE
  8
1
 62
7
 10
865.7432329139251
 20
1643.617225100049
 30
0
 11
865.7432329139251
 21
1642.617225100049
 31
0
  0
LINE
  8
1
 62
7
 10
963.7768972892419
 20
1643.617225100049
 30
0
 11
863.7222329139252
 21
1643.617225100049
 31
0
  0
LINE
  8
1
 62
7
 10
865.7432329139251
 20
1630.21722510005
 30
0
 11
865.7432329139251
 21
1629.217225100049
 31
0
  0
LINE
  8
1
 62
7
 10
865.7432329139251
 20
1658.217225100049
 30
0
 11
967.6889554987363
 21
1658.217225100049
 31
0
  0
LINE
  8
1
 62
7
 10
1009.701232913925
 20
1659.217225100049
 30
0
 11
1009.701232913925
 21
1658.217225100049
 31
0
  0
LINE
  8
1
 62
7
 10
973.1332855932178
 20
1659.217225100049
 30
0
 11
1011.722232913925
 21
1659.217225100049
 31
0
  0
LINE
  8
1
 62
7
 10
1009.701232913925
 20
1645.817225100049
 30
0
 11
1009.701232913925
 21
1644.817225100049
 31
0
  0
LINE
  8
1
 62
7
 10
969.2748172222096
 20
1644.817225100049
 30
0
 11
1011.722232913925
 21
1644.817225100049
 31
0
  0
LINE
  8
1
 62
7
 10
1009.701232913925
 20
1643.617225100049
 30
0
 11
1009.701232913925
 21
1642.617225100049
 31
0
  0
LINE
  8
1
 62
7
 10
1009.701232913925
 20
1630.217225100049
 30
0
 11
1009.701232913925
 21
1629.217225100049
 31
0
  0
LINE
  8
1
 62
7
 10
1009.701232913925
 20
1645.817225100049
 30
0
 11
969.5427664146408
 21
1645.817225100049
 31
0
  0
LINE
  8
1
 62
7
 10
865.7432329139251
 20
1642.617225100049
 30
0
 11
963.5089480968109
 21
1642.617225100049
 31
0
  0
LINE
  8
1
 62
7
 10
1009.701232913925
 20
1630.217225100049
 30
0
 11
965.3627590127153
 21
1630.217225100049
 31
0
  0
LINE
  8
1
 62
7
 10
972.8653364007867
 20
1658.217225100049
 30
0
 11
1009.701232913925
 21
1658.217225100049
 31
0
  0
LINE
  8
1
 62
7
 10
964.3663855125903
 20
1645.817225100049
 30
0
 11
865.7432329139251
 21
1645.817225100049
 31
0
  0
LINE
  8
1
 62
7
 10
968.6853289988612
 20
1642.617225100049
 30
0
 11
1009.701232913925
 21
1642.617225100049
 31
0
  0
LINE
  8
1
 62
7
 10
960.1863781106649
 20
1630.217225100049
 30
0
 11
865.7432329139251
 21
1630.21722510005
 31
0
  0
LINE
  8
1
 62
7
 10
1061.04106141992
 20
1630.467225100049
 30
0
 11
1061.04106141992
 21
1632.217225100049
 31
0
  0
LINE
  8
1
 62
7
 10
1055.84106141992
 20
1630.467225100049
 30
0
 11
1061.04106141992
 21
1630.467225100049
 31
0
  0
LINE
  8
1
 62
7
 10
1055.84106141992
 20
1630.467225100049
 30
0
 11
1055.84106141992
 21
1630.217225100049
 31
0
  0
LINE
  8
1
 62
7
 10
1056.84106141992
 20
1629.217225100049
 30
0
 11
1055.84106141992
 21
1630.217225100049
 31
0
  0
LINE
  8
1
 62
7
 10
1056.84106141992
 20
1629.217225100049
 30
0
 11
1069.84106141992
 21
1629.217225100049
 31
0
  0
LINE
  8
1
 62
7
 10
1069.84106141992
 20
1629.217225100049
 30
0
 11
1070.84106141992
 21
1630.217225100049
 31
0
  0
LINE
  8
1
 62
3
 10
1061.04106141992
 20
1632.217225100049
 30
0
 11
1070.84106141992
 21
1632.217225100049
 31
0
  0
LINE
  8
1
 62
7
 10
1055.84106141992
 20
1642.617225100049
 30
0
 11
1056.84106141992
 21
1643.617225100049
 31
0
  0
LINE
  8
1
 62
7
 10
1055.84106141992
 20
1642.617225100049
 30
0
 11
1055.84106141992
 21
1639.967225100049
 31
0
  0
LINE
  8
1
 62
7
 10
1061.04106141992
 20
1639.967225100049
 30
0
 11
1055.84106141992
 21
1639.967225100049
 31
0
  0
LINE
  8
1
 62
7
 10
1061.04106141992
 20
1638.217225100049
 30
0
 11
1061.04106141992
 21
1639.967225100049
 31
0
  0
LINE
  8
1
 62
3
 10
1070.84106141992
 20
1638.217225100049
 30
0
 11
1061.04106141992
 21
1638.217225100049
 31
0
  0
LINE
  8
1
 62
7
 10
1070.84106141992
 20
1642.617225100049
 30
0
 11
1069.84106141992
 21
1643.617225100049
 31
0
  0
LINE
  8
1
 62
7
 10
1069.84106141992
 20
1643.617225100049
 30
0
 11
1066.983702107039
 21
1643.617225100049
 31
0
  0
LINE
  8
1
 62
7
 10
1066.983702107039
 20
1643.617225100049
 30
0
 11
1063.34106141992
 21
1639.97458441293
 31
0
  0
LINE
  8
1
 62
7
 10
1059.6984207328
 20
1643.617225100049
 30
0
 11
1063.34106141992
 21
1639.97458441293
 31
0
  0
LINE
  8
1
 62
7
 10
1056.84106141992
 20
1643.617225100049
 30
0
 11
1059.6984207328
 21
1643.617225100049
 31
0
  0
LINE
  8
1
 62
7
 10
1061.04106141992
 20
1637.817225100049
 30
0
 11
1061.04106141992
 21
1638.217225100049
 31
0
  0
LINE
  8
1
 62
7
 10
1061.04106141992
 20
1632.217225100049
 30
0
 11
1061.04106141992
 21
1632.617225100049
 31
0
  0
LINE
  8
1
 62
7
 10
1070.84106141992
 20
1632.617225100049
 30
0
 11
1061.04106141992
 21
1632.617225100049
 31
0
  0
LINE
  8
1
 62
7
 10
1061.04106141992
 20
1632.617225100049
 30
0
 11
1061.04106141992
 21
1637.817225100049
 31
0
  0
LINE
  8
1
 62
7
 10
1070.84106141992
 20
1637.817225100049
 30
0
 11
1061.04106141992
 21
1637.817225100049
 31
0
  0
LINE
  8
1
 62
7
 10
1055.84106141992
 20
1639.967225100049
 30
0
 11
1055.84106141992
 21
1630.467225100049
 31
0
  0
LINE
  8
1
 62
3
  6
CENTER
 10
1072.34106141992
 20
1635.217225100049
 30
0
 11
1054.34106141992
 21
1635.217225100049
 31
0
  0
LINE
  8
1
 62
4
  6
CENTER
 10
1063.34106141992
 20
1660.90991652719
 30
0
 11
1063.34106141992
 21
1647.32849493727
 31
0
  0
LINE
  8
1
 62
7
 10
1012.722232913925
 20
1645.767225100049
 30
0
 11
1012.722232913925
 21
1658.267225100049
 31
0
  0
LINE
  8
1
 62
4
  6
CENTER
 10
1054.8479433337
 20
1644.217225100049
 30
0
 11
1070.59158017484
 21
1644.217225100049
 31
0
  0
LINE
  8
1
 62
7
 10
862.7222329139252
 20
1642.667225100049
 30
0
 11
860.7222329139252
 21
1642.667225100049
 31
0
  0
LINE
  8
1
 62
7
 10
859.7222329139252
 20
1641.667225100049
 30
0
 11
859.7222329139252
 21
1631.167225100049
 31
0
  0
LINE
  8
1
 62
7
 10
860.7222329139252
 20
1642.667225100049
 30
0
 11
860.7222329139252
 21
1630.167225100049
 31
0
  0
LINE
  8
1
 62
7
 10
860.7222329139252
 20
1630.167225100049
 30
0
 11
862.7222329139252
 21
1630.167225100049
 31
0
  0
LINE
  8
1
 62
7
 10
860.7222329139252
 20
1642.667225100049
 30
0
 11
859.7222329139252
 21
1641.667225100049
 31
0
  0
LINE
  8
1
 62
7
 10
860.7222329139252
 20
1630.167225100049
 30
0
 11
859.7222329139252
 21
1631.167225100049
 31
0
  0
LINE
  8
1
 62
7
 10
1012.722232913925
 20
1642.667225100049
 30
0
 11
1014.722232913925
 21
1642.667225100049
 31
0
  0
LINE
  8
1
 62
7
 10
1015.722232913925
 20
1641.667225100049
 30
0
 11
1015.722232913925
 21
1631.167225100049
 31
0
  0
LINE
  8
1
 62
7
 10
1014.722232913925
 20
1642.667225100049
 30
0
 11
1014.722232913925
 21
1630.167225100049
 31
0
  0
LINE
  8
1
 62
7
 10
1014.722232913925
 20
1630.167225100049
 30
0
 11
1012.722232913925
 21
1630.167225100049
 31
0
  0
LINE
  8
1
 62
7
 10
1014.722232913925
 20
1642.667225100049
 30
0
 11
1015.722232913925
 21
1641.667225100049
 31
0
  0
LINE
  8
1
 62
7
 10
1014.722232913925
 20
1630.167225100049
 30
0
 11
1015.722232913925
 21
1631.167225100049
 31
0
  0
LINE
  8
1
 62
7
 10
1032.66022920011
 20
1643.617225100049
 30
0
 11
1035.51758851299
 21
1643.617225100049
 31
0
  0
LINE
  8
1
 62
7
 10
1032.66022920011
 20
1644.817225100049
 30
0
 11
1035.51758851299
 21
1644.817225100049
 31
0
  0
LINE
  8
1
 62
7
 10
1037.79642607566
 20
1642.516613679058
 30
0
 11
1035.51758851299
 21
1644.817225100049
 31
0
  0
LINE
  8
1
 62
7
 10
1036.893226135455
 20
1642.241587477585
 30
0
 11
1035.51758851299
 21
1643.617225100049
 31
0
  0
LINE
  8
1
 62
7
 10
859.7222329139252
 20
1657.267225100049
 30
0
 11
859.7222329139252
 21
1646.767225100049
 31
0
  0
LINE
  8
1
 62
7
 10
860.7222329139252
 20
1658.267225100049
 30
0
 11
860.7222329139252
 21
1645.767225100049
 31
0
  0
LINE
  8
1
 62
7
 10
860.7222329139252
 20
1658.267225100049
 30
0
 11
859.7222329139252
 21
1657.267225100049
 31
0
  0
LINE
  8
1
 62
7
 10
860.7222329139252
 20
1645.767225100049
 30
0
 11
859.7222329139252
 21
1646.767225100049
 31
0
  0
LINE
  8
1
 62
7
 10
860.7222329139252
 20
1645.767225100049
 30
0
 11
862.7222329139252
 21
1645.767225100049
 31
0
  0
LINE
  8
1
 62
7
 10
862.7222329139252
 20
1658.267225100049
 30
0
 11
860.7222329139252
 21
1658.267225100049
 31
0
  0
LINE
  8
1
 62
7
 10
1012.722232913925
 20
1658.267225100049
 30
0
 11
1014.722232913925
 21
1658.267225100049
 31
0
  0
LINE
  8
1
 62
7
 10
1015.722232913925
 20
1657.267225100049
 30
0
 11
1015.722232913925
 21
1646.767225100049
 31
0
  0
LINE
  8
1
 62
7
 10
1014.722232913925
 20
1658.267225100049
 30
0
 11
1014.722232913925
 21
1645.767225100049
 31
0
  0
LINE
  8
1
 62
7
 10
1014.722232913925
 20
1645.767225100049
 30
0
 11
1012.722232913925
 21
1645.767225100049
 31
0
  0
LINE
  8
1
 62
7
 10
1014.722232913925
 20
1658.267225100049
 30
0
 11
1015.722232913925
 21
1657.267225100049
 31
0
  0
LINE
  8
1
 62
7
 10
1014.722232913925
 20
1645.767225100049
 30
0
 11
1015.722232913925
 21
1646.767225100049
 31
0
  0
LINE
  8
1
 62
7
 10
1036.893226135455
 20
1646.192862722514
 30
0
 11
1035.51758851299
 21
1644.817225100049
 31
0
  0
LINE
  8
1
 62
7
 10
1040.539193549182
 20
1645.92124631695
 30
0
 11
1042.823042326656
 21
1643.637397539476
 31
0
  0
LINE
  8
1
 62
7
 10
1041.401736453028
 20
1646.183003195192
 30
0
 11
1042.81950679275
 21
1644.765232855469
 31
0
  0
LINE
  8
1
 62
7
 10
1055.84106141992
 20
1658.217225100049
 30
0
 11
1055.84106141992
 21
1656.217225100049
 31
0
  0
LINE
  8
1
 62
7
 10
1055.84106141992
 20
1650.617225100049
 30
0
 11
1055.84106141992
 21
1650.217225100049
 31
0
  0
LINE
  8
1
 62
7
 10
1055.84106141992
 20
1655.817225100049
 30
0
 11
1055.84106141992
 21
1650.617225100049
 31
0
  0
LINE
  8
1
 62
7
 10
1055.84106141992
 20
1656.217225100049
 30
0
 11
1055.84106141992
 21
1655.817225100049
 31
0
  0
LINE
  8
1
 62
7
 10
1055.84106141992
 20
1650.217225100049
 30
0
 11
1055.84106141992
 21
1645.817225100049
 31
0
  0
LINE
  8
1
 62
7
 10
1065.64106141992
 20
1657.967225100049
 30
0
 11
1065.64106141992
 21
1656.217225100049
 31
0
  0
LINE
  8
1
 62
7
 10
1070.84106141992
 20
1657.967225100049
 30
0
 11
1065.64106141992
 21
1657.967225100049
 31
0
  0
LINE
  8
1
 62
7
 10
1070.84106141992
 20
1657.967225100049
 30
0
 11
1070.84106141992
 21
1658.217225100049
 31
0
  0
LINE
  8
1
 62
7
 10
1069.84106141992
 20
1659.217225100049
 30
0
 11
1070.84106141992
 21
1658.217225100049
 31
0
  0
LINE
  8
1
 62
7
 10
1069.84106141992
 20
1659.217225100049
 30
0
 11
1056.84106141992
 21
1659.217225100049
 31
0
  0
LINE
  8
1
 62
7
 10
1056.84106141992
 20
1659.217225100049
 30
0
 11
1055.84106141992
 21
1658.217225100049
 31
0
  0
LINE
  8
1
 62
3
 10
1065.64106141992
 20
1656.217225100049
 30
0
 11
1055.84106141992
 21
1656.217225100049
 31
0
  0
LINE
  8
1
 62
7
 10
1070.84106141992
 20
1645.817225100049
 30
0
 11
1069.84106141992
 21
1644.817225100049
 31
0
  0
LINE
  8
1
 62
7
 10
1070.84106141992
 20
1645.817225100049
 30
0
 11
1070.84106141992
 21
1648.467225100049
 31
0
  0
LINE
  8
1
 62
7
 10
1065.64106141992
 20
1648.467225100049
 30
0
 11
1070.84106141992
 21
1648.467225100049
 31
0
  0
LINE
  8
1
 62
7
 10
1065.64106141992
 20
1650.217225100049
 30
0
 11
1065.64106141992
 21
1648.467225100049
 31
0
  0
LINE
  8
1
 62
3
 10
1055.84106141992
 20
1650.217225100049
 30
0
 11
1065.64106141992
 21
1650.217225100049
 31
0
  0
LINE
  8
1
 62
7
 10
1055.84106141992
 20
1645.817225100049
 30
0
 11
1056.84106141992
 21
1644.817225100049
 31
0
  0
LINE
  8
1
 62
7
 10
1056.84106141992
 20
1644.817225100049
 30
0
 11
1059.698420732801
 21
1644.817225100049
 31
0
  0
LINE
  8
1
 62
7
 10
1059.698420732801
 20
1644.817225100049
 30
0
 11
1063.34106141992
 21
1648.459865787168
 31
0
  0
LINE
  8
1
 62
7
 10
1066.98370210704
 20
1644.817225100049
 30
0
 11
1063.34106141992
 21
1648.459865787168
 31
0
  0
LINE
  8
1
 62
7
 10
1069.84106141992
 20
1644.817225100049
 30
0
 11
1066.98370210704
 21
1644.817225100049
 31
0
  0
LINE
  8
1
 62
7
 10
1065.64106141992
 20
1650.617225100049
 30
0
 11
1065.64106141992
 21
1650.217225100049
 31
0
  0
LINE
  8
1
 62
7
 10
1065.64106141992
 20
1656.217225100049
 30
0
 11
1065.64106141992
 21
1655.817225100049
 31
0
  0
LINE
  8
1
 62
7
 10
1055.84106141992
 20
1655.817225100049
 30
0
 11
1065.64106141992
 21
1655.817225100049
 31
0
  0
LINE
  8
1
 62
7
 10
1065.64106141992
 20
1655.817225100049
 30
0
 11
1065.64106141992
 21
1650.617225100049
 31
0
  0
LINE
  8
1
 62
7
 10
1055.84106141992
 20
1650.617225100049
 30
0
 11
1065.64106141992
 21
1650.617225100049
 31
0
  0
LINE
  8
1
 62
7
 10
1070.84106141992
 20
1648.467225100049
 30
0
 11
1070.84106141992
 21
1657.967225100049
 31
0
  0
LINE
  8
1
 62
3
  6
CENTER
 10
1054.34106141992
 20
1653.217225100049
 30
0
 11
1072.34106141992
 21
1653.217225100049
 31
0
  0
LINE
  8
1
 62
7
 10
1063.34106141992
 20
1647.32849493727
 30
0
 11
1062.7930536645
 21
1647.876502692689
 31
0
  0
LINE
  8
1
 62
4
  6
CENTER
 10
1063.34106141992
 20
1647.32849493727
 30
0
 11
1063.34106141992
 21
1625.765550841822
 31
0
  0
LINE
  8
1
 62
7
 10
1062.7930536645
 20
1647.876502692689
 30
0
 11
1059.68178382728
 21
1644.765232855469
 31
0
  0
LINE
  8
1
 62
7
 10
1059.68178382728
 20
1644.765232855469
 30
0
 11
1060.243933718323
 21
1644.203082964425
 31
0
  0
LINE
  8
1
 62
7
 10
1066.438189121517
 20
1644.231367235673
 30
0
 11
1067.00033901256
 21
1643.669217344629
 31
0
  0
LINE
  8
1
 62
7
 10
1067.00033901256
 20
1643.669217344629
 30
0
 11
1063.88906917534
 21
1640.557947507409
 31
0
  0
LINE
  8
1
 62
7
 10
1063.88906917534
 20
1640.557947507409
 30
0
 11
1063.326919284296
 21
1641.120097398452
 31
0
  0
LINE
  8
1
 62
7
 10
1063.920888980493
 20
1647.880038226595
 30
0
 11
1059.678248293374
 21
1643.637397539476
 31
0
  0
LINE
  8
1
 62
7
 10
1059.678248293374
 20
1643.637397539476
 30
0
 11
1059.6984207328
 21
1643.617225100049
 31
0
  0
LINE
  8
1
 62
7
 10
1066.98370210704
 20
1644.817225100049
 30
0
 11
1067.003874546466
 21
1644.797052660622
 31
0
  0
LINE
  8
1
 62
7
 10
1067.003874546466
 20
1644.797052660622
 30
0
 11
1062.761233859347
 21
1640.554411973503
 31
0
  0
LINE
  8
1
 62
7
 10
1036.96022920011
 20
1636.089230198479
 30
0
 11
1036.96022920011
 21
1636.091848458218
 31
0
  0
LINE
  8
1
 62
7
 10
1038.218912463986
 20
1636.069878060123
 30
0
 11
1036.96022920011
 21
1636.091848458218
 31
0
  0
LINE
  8
1
 62
7
 10
1038.62989911422
 20
1635.88689501416
 30
0
 11
1038.218912463986
 21
1636.069878060123
 31
0
  0
LINE
  8
1
 62
7
 10
1038.812882160183
 20
1635.475908363926
 30
0
 11
1038.62989911422
 21
1635.88689501416
 31
0
  0
LINE
  8
1
 62
7
 10
1038.834852558278
 20
1634.21722510005
 30
0
 11
1038.812882160183
 21
1635.475908363926
 31
0
  0
LINE
  8
1
 62
7
 10
1039.16022920011
 20
1634.21722510005
 30
0
 11
1038.834852558278
 21
1634.21722510005
 31
0
  0
LINE
  8
1
 62
7
 10
1041.36022920011
 20
1636.41722510005
 30
0
 11
1041.36022920011
 21
1636.091848458218
 31
0
  0
LINE
  8
1
 62
7
 10
1041.36022920011
 20
1636.091848458218
 30
0
 11
1040.101545936234
 21
1636.069878060123
 31
0
  0
LINE
  8
1
 62
7
 10
1040.101545936234
 20
1636.069878060123
 30
0
 11
1039.690559286
 21
1635.88689501416
 31
0
  0
LINE
  8
1
 62
7
 10
1039.690559286
 20
1635.88689501416
 30
0
 11
1039.507576240037
 21
1635.475908363926
 31
0
  0
LINE
  8
1
 62
7
 10
1039.507576240037
 20
1635.475908363926
 30
0
 11
1039.485605841942
 21
1634.21722510005
 31
0
  0
LINE
  8
1
 62
7
 10
1039.485605841942
 20
1634.21722510005
 30
0
 11
1039.16022920011
 21
1634.21722510005
 31
0
  0
LINE
  8
1
 62
7
 10
1036.96022920011
 20
1636.091848458218
 30
0
 11
1036.96022920011
 21
1636.742601741882
 31
0
  0
LINE
  8
1
 62
7
 10
1036.96022920011
 20
1636.742601741882
 30
0
 11
1038.218912463986
 21
1636.764572139977
 31
0
  0
LINE
  8
1
 62
7
 10
1038.218912463986
 20
1636.764572139977
 30
0
 11
1038.62989911422
 21
1636.94755518594
 31
0
  0
LINE
  8
1
 62
7
 10
1038.62989911422
 20
1636.94755518594
 30
0
 11
1038.812882160183
 21
1637.358541836174
 31
0
  0
LINE
  8
1
 62
7
 10
1038.812882160183
 20
1637.358541836174
 30
0
 11
1038.834852558278
 21
1638.61722510005
 31
0
  0
LINE
  8
1
 62
7
 10
1038.834852558278
 20
1638.61722510005
 30
0
 11
1039.16022920011
 21
1638.61722510005
 31
0
  0
LINE
  8
1
 62
7
 10
1041.36022920011
 20
1636.742601741882
 30
0
 11
1041.36022920011
 21
1636.41722510005
 31
0
  0
LINE
  8
1
 62
7
 10
1040.101545936234
 20
1636.764572139977
 30
0
 11
1041.36022920011
 21
1636.742601741882
 31
0
  0
LINE
  8
1
 62
7
 10
1039.690559286
 20
1636.94755518594
 30
0
 11
1040.101545936234
 21
1636.764572139977
 31
0
  0
LINE
  8
1
 62
7
 10
1039.507576240037
 20
1637.358541836174
 30
0
 11
1039.690559286
 21
1636.94755518594
 31
0
  0
LINE
  8
1
 62
7
 10
1039.485605841942
 20
1638.61722510005
 30
0
 11
1039.507576240037
 21
1637.358541836174
 31
0
  0
LINE
  8
1
 62
7
 10
1039.16022920011
 20
1638.61722510005
 30
0
 11
1039.485605841942
 21
1638.61722510005
 31
0
  0
LINE
  8
1
 62
7
 10
1036.96022920011
 20
1651.689230198478
 30
0
 11
1036.96022920011
 21
1651.691848458217
 31
0
  0
LINE
  8
1
 62
7
 10
1038.218912463986
 20
1651.669878060122
 30
0
 11
1036.96022920011
 21
1651.691848458217
 31
0
  0
LINE
  8
1
 62
7
 10
1038.62989911422
 20
1651.486895014159
 30
0
 11
1038.218912463986
 21
1651.669878060122
 31
0
  0
LINE
  8
1
 62
7
 10
1038.812882160183
 20
1651.075908363925
 30
0
 11
1038.62989911422
 21
1651.486895014159
 31
0
  0
LINE
  8
1
 62
7
 10
1038.834852558278
 20
1649.817225100049
 30
0
 11
1038.812882160183
 21
1651.075908363925
 31
0
  0
LINE
  8
1
 62
7
 10
1039.16022920011
 20
1649.817225100049
 30
0
 11
1038.834852558278
 21
1649.817225100049
 31
0
  0
LINE
  8
1
 62
7
 10
1041.36022920011
 20
1652.017225100049
 30
0
 11
1041.36022920011
 21
1651.691848458217
 31
0
  0
LINE
  8
1
 62
7
 10
1041.36022920011
 20
1651.691848458217
 30
0
 11
1040.101545936234
 21
1651.669878060122
 31
0
  0
LINE
  8
1
 62
7
 10
1040.101545936234
 20
1651.669878060122
 30
0
 11
1039.690559286
 21
1651.486895014159
 31
0
  0
LINE
  8
1
 62
7
 10
1039.690559286
 20
1651.486895014159
 30
0
 11
1039.507576240037
 21
1651.075908363925
 31
0
  0
LINE
  8
1
 62
7
 10
1039.507576240037
 20
1651.075908363925
 30
0
 11
1039.485605841942
 21
1649.817225100049
 31
0
  0
LINE
  8
1
 62
7
 10
1039.485605841942
 20
1649.817225100049
 30
0
 11
1039.16022920011
 21
1649.817225100049
 31
0
  0
LINE
  8
1
 62
7
 10
1036.96022920011
 20
1651.691848458217
 30
0
 11
1036.96022920011
 21
1652.342601741881
 31
0
  0
LINE
  8
1
 62
7
 10
1036.96022920011
 20
1652.342601741881
 30
0
 11
1038.218912463986
 21
1652.364572139976
 31
0
  0
LINE
  8
1
 62
7
 10
1038.218912463986
 20
1652.364572139976
 30
0
 11
1038.62989911422
 21
1652.547555185939
 31
0
  0
LINE
  8
1
 62
7
 10
1038.62989911422
 20
1652.547555185939
 30
0
 11
1038.812882160183
 21
1652.958541836173
 31
0
  0
LINE
  8
1
 62
7
 10
1038.812882160183
 20
1652.958541836173
 30
0
 11
1038.834852558278
 21
1654.217225100049
 31
0
  0
LINE
  8
1
 62
7
 10
1038.834852558278
 20
1654.217225100049
 30
0
 11
1039.16022920011
 21
1654.217225100049
 31
0
  0
LINE
  8
1
 62
7
 10
1041.36022920011
 20
1652.342601741881
 30
0
 11
1041.36022920011
 21
1652.017225100049
 31
0
  0
LINE
  8
1
 62
7
 10
1040.101545936234
 20
1652.364572139976
 30
0
 11
1041.36022920011
 21
1652.342601741881
 31
0
  0
LINE
  8
1
 62
7
 10
1039.690559286
 20
1652.547555185939
 30
0
 11
1040.101545936234
 21
1652.364572139976
 31
0
  0
LINE
  8
1
 62
7
 10
1039.507576240037
 20
1652.958541836173
 30
0
 11
1039.690559286
 21
1652.547555185939
 31
0
  0
LINE
  8
1
 62
7
 10
1039.485605841942
 20
1654.217225100049
 30
0
 11
1039.507576240037
 21
1652.958541836173
 31
0
  0
LINE
  8
1
 62
7
 10
1039.16022920011
 20
1654.217225100049
 30
0
 11
1039.485605841942
 21
1654.217225100049
 31
0
  0
LINE
  8
1
 62
7
 10
1041.550250120521
 20
1645.755631304385
 30
0
 11
1041.588656324856
 21
1645.717225100049
 31
0
  0
ARC
  8
1
 62
7
 10
1001.22611224343
 20
1652.017225100049
 30
0
 40
10.50084141292746
 50
323.8125514980829
 51
36.18744850191717
  0
ARC
  8
1
 62
7
 10
1001.204620040496
 20
1636.417225100049
 30
0
 40
10.5181952026438
 50
323.8816756846614
 51
36.11832431533762
  0
ARC
  8
1
 62
7
 10
874.2114675979004
 20
1652.017225100049
 30
0
 40
10.4952845918004
 50
143.7903561386812
 51
216.2096438613188
  0
ARC
  8
1
 62
7
 10
874.1758069664595
 20
1636.417225100049
 30
0
 40
10.46653262315052
 50
143.6750356183827
 51
216.3249643816143
  0
CIRCLE
  8
1
 62
7
  6
DASHED
 10
887.7222329139252
 20
1653.217225100049
 30
0
 40
4.75
  0
CIRCLE
  8
1
 62
7
  6
DASHED
 10
937.7222329139252
 20
1653.217225100049
 30
0
 40
4.75
  0
CIRCLE
  8
1
 62
3
 10
887.7222329139252
 20
1653.217225100049
 30
0
 40
3
  0
CIRCLE
  8
1
 62
7
 10
887.7222329139252
 20
1653.217225100049
 30
0
 40
2.400000000000091
  0
CIRCLE
  8
1
 62
3
 10
937.7222329139252
 20
1653.217225100049
 30
0
 40
3
  0
CIRCLE
  8
1
 62
7
 10
937.7222329139252
 20
1653.217225100049
 30
0
 40
2.400000000000091
  0
CIRCLE
  8
1
 62
3
 10
987.7222329139252
 20
1653.217225100049
 30
0
 40
3
  0
CIRCLE
  8
1
 62
7
 10
987.7222329139252
 20
1653.217225100049
 30
0
 40
2.400000000000091
  0
CIRCLE
  8
1
 62
7
 10
987.7222329139249
 20
1635.217225100049
 30
0
 40
2.400000000000091
  0
CIRCLE
  8
1
 62
3
 10
987.7222329139249
 20
1635.217225100049
 30
0
 40
3
  0
CIRCLE
  8
1
 62
7
 10
937.7222329139252
 20
1635.217225100049
 30
0
 40
2.400000000000091
  0
CIRCLE
  8
1
 62
3
 10
937.7222329139252
 20
1635.217225100049
 30
0
 40
3
  0
CIRCLE
  8
1
 62
7
 10
887.7222329139252
 20
1635.217225100049
 30
0
 40
2.400000000000091
  0
CIRCLE
  8
1
 62
3
 10
887.7222329139252
 20
1635.217225100049
 30
0
 40
3
  0
CIRCLE
  8
1
 62
7
 10
987.7222329139249
 20
1635.217225100049
 30
0
 40
4.75
  0
CIRCLE
  8
1
 62
7
 10
937.7222329139252
 20
1635.217225100049
 30
0
 40
4.75
  0
CIRCLE
  8
1
 62
7
 10
887.7222329139252
 20
1635.217225100049
 30
0
 40
4.75
  0
CIRCLE
  8
1
 62
7
 10
987.7222329139252
 20
1653.217225100049
 30
0
 40
2.400000000000091
  0
CIRCLE
  8
1
 62
3
 10
987.7222329139252
 20
1653.217225100049
 30
0
 40
3
  0
CIRCLE
  8
1
 62
7
  6
DASHED
 10
987.7222329139252
 20
1653.217225100049
 30
0
 40
4.75
  0
CIRCLE
  8
1
 62
7
 10
1039.16022920011
 20
1652.017225100049
 30
0
 40
6.250000000000441
  0
CIRCLE
  8
1
 62
7
 10
1039.16022920011
 20
1636.41722510005
 30
0
 40
6.250000000000441
  0
CIRCLE
  8
1
 62
7
 10
1039.16022920011
 20
1636.41722510005
 30
0
 40
5.249999999998863
  0
CIRCLE
  8
1
 62
7
 10
1039.16022920011
 20
1652.017225100049
 30
0
 40
5.25
  0
TEXT
  8
1
 62
2
 10
855.3809075879771
 20
1680.64299050587
 30
0
 40
3.5
  1
MODEL : G6
 41
0.72
  7
COMPLEX
  0
TEXT
  8
1
 62
2
 10
1029.46722182764
 20
1595.62488476824
 30
0
 40
3.5
  1
UNION TOOL CO.
 41
0.72
  7
COMPLEX
  0
ENDSEC
  0
EOF
