  0
SECTION
  2
HEADER
  9
$ACADVER
  1
AC1009
  9
$INSBASE
 10
0
 20
0
  9
$EXTMIN
 10
-278.5323526866886
 20
-64.1598893417703
  9
$EXTMAX
 10
-89.68278895136
 20
26.2303548040671
  9
$LIMMIN
 10
-278.5323526866886
 20
-64.1598893417703
  9
$LIMMAX
 10
-89.68278895136
 20
26.2303548040671
  9
$VIEWCTR
 10
10
 20
10
  9
$VIEWSIZE
 40
10
  9
$SNAPMODE
 70
0
  9
$SNAPUNIT
 10
1
 20
1
  9
$SNAPBASE
 10
0
 20
0
  9
$SNAPANG
 50
0
  9
$SNAPSTYLE
 70
0
  9
$SNAPISOPAIR
 70
0
  9
$GRIDMODE
 70
0
  9
$GRIDUNIT
 10
0
 20
0
  9
$ORTHOMODE
 70
0
  9
$REGENMODE
 70
1
  9
$FILLMODE
 70
1
  9
$QTEXTMODE
 70
0
  9
$DRAGMODE
 70
2
  9
$LTSCALE
 40
1
  9
$OSMODE
 70
0
  9
$ATTMODE
 70
1
  9
$TEXTSIZE
 40
3.5
  9
$TRACEWID
 40
0.5
  9
$TEXTSTYLE
  7
STANDARD
  9
$CLAYER
  8
0
  9
$CELTYPE
  6
BYLAYER
  9
$CECOLOR
 62
256
  9
$DIMSCALE
 40
1
  9
$DIMASZ
 40
0.18
  9
$DIMEXO
 40
0.0625
  9
$DIMDLI
 40
0.38
  9
$DIMRND
 40
0
  9
$DIMDLE
 40
0
  9
$DIMEXE
 40
0.18
  9
$DIMTP
 40
0
  9
$DIMTM
 40
0
  9
$DIMTXT
 40
0.18
  9
$DIMCEN
 40
0.09
  9
$DIMTSZ
 40
0
  9
$DIMTOL
 70
0
  9
$DIMLIM
 70
0
  9
$DIMTIH
 70
1
  9
$DIMTOH
 70
1
  9
$DIMSE1
 70
0
  9
$DIMSE2
 70
0
  9
$DIMTAD
 70
0
  9
$DIMZIN
 70
0
  9
$DIMBLK
  1

  9
$DIMASO
 70
1
  9
$DIMSHO
 70
1
  9
$DIMPOST
  1

  9
$DIMAPOST
  1

  9
$DIMALT
 70
0
  9
$DIMALTD
 70
2
  9
$DIMALTF
 40
25.4
  9
$DIMLFAC
 40
1
  9
$DIMTOFL
 70
0
  9
$DIMTVP
 40
0
  9
$DIMTIX
 70
0
  9
$DIMSOXD
 70
0
  9
$DIMSAH
 70
0
  9
$DIMBLK1
  1

  9
$DIMBLK2
  1

  9
$DIMSTYLE
  2
*UNNAMED
  9
$DIMCLRD
 70
0
  9
$DIMCLRE
 70
0
  9
$DIMCLRT
 70
0
  9
$DIMTFAC
 40
1
  9
$DIMGAP
 40
0.09
  9
$LUNITS
 70
2
  9
$LUPREC
 70
4
  9
$AXISMODE
 70
0
  9
$AXISUNIT
 10
0
 20
0
  9
$SKETCHINC
 40
0.1
  9
$FILLETRAD
 40
2
  9
$AUNITS
 70
0
  9
$AUPREC
 70
0
  9
$MENU
  1
ACAD
  9
$ELEVATION
 40
0
  9
$THICKNESS
 40
0
  9
$VIEWDIR
 10
0
 20
0
 30
1
  9
$LIMCHECK
 70
0
  9
$BLIPMODE
 70
1
  9
$CHAMFERA
 40
0
  9
$CHAMFERB
 40
0
  9
$FASTZOOM
 70
1
  9
$SKPOLY
 70
0
  9
$ANGBASE
 50
0
  9
$ANGDIR
 70
0
  9
$PDMODE
 70
0
  9
$PDSIZE
 40
0
  9
$PLINEWID
 40
0
  9
$COORDS
 70
2
  0
ENDSEC
  0
SECTION
  2
TABLES
  0
TABLE
  2
DIMSTYLE
 70
0
  0
ENDTAB
  0
TABLE
  2
LTYPE
 70
9
  0
LTYPE
  2
CONTINUOUS
 70
64
  3
Solid line
 72
65
 73
0
 40
0
  0
LTYPE
  2
BORDER
 70
64
  3
__ __ . __ __ .
 72
65
 73
6
 40
8.69701938254803
 49
2.484862680728008
 49
-1.242431340364004
 49
2.484862680728008
 49
-1.242431340364004
 49
0
 49
-1.242431340364004
  0
LTYPE
  2
CENTER
 70
64
  3
____ _ ____ _
 72
65
 73
4
 40
9.939450722912033
 49
6.212156701820021
 49
-1.242431340364004
 49
1.242431340364004
 49
-1.242431340364004
  0
LTYPE
  2
DASHDOT
 70
64
  3
__ . __ . __ .
 72
65
 73
4
 40
4.969725361456017
 49
2.484862680728008
 49
-1.242431340364004
 49
0
 49
-1.242431340364004
  0
LTYPE
  2
DASHED
 70
64
  3
__ __ __ __ __
 72
65
 73
2
 40
3.727294021092012
 49
2.484862680728008
 49
-1.242431340364004
  0
LTYPE
  2
DIVIDE
 70
64
  3
__ . . __ . . 
 72
65
 73
6
 40
6.212156701820021
 49
2.484862680728008
 49
-1.242431340364004
 49
0
 49
-1.242431340364004
 49
0
 49
-1.242431340364004
  0
LTYPE
  2
DOT
 70
64
  3
..............
 72
65
 73
4
 40
2.484862680728008
 49
0
 49
-1.242431340364004
 49
0
 49
-1.242431340364004
  0
LTYPE
  2
HIDDEN
 70
64
  3
_ _ _ _ _ _ _
 72
65
 73
2
 40
1.863647010546006
 49
1.242431340364004
 49
-0.6212156701820021
  0
LTYPE
  2
PHANTOM
 70
64
  3
_____ _ _ _____ _ _ 
 72
65
 73
6
 40
12.42431340364004
 49
6.212156701820021
 49
-1.242431340364004
 49
1.242431340364004
 49
-1.242431340364004
 49
1.242431340364004
 49
-1.242431340364004
  0
ENDTAB
  0
TABLE
  2
LAYER
 70
3
  0
LAYER
  2
1
 70
0
 62
7
  6
CONTINUOUS
  0
LAYER
  2
0
 70
0
 62
7
  6
CONTINUOUS
  0
ENDTAB
  0
TABLE
  2
STYLE
 70
4
  0
STYLE
  2
STANDARD
 70
0
 40
0
 41
1
 50
0
 71
0
 42
3.5
  3
txt
  4

  0
STYLE
  2
SIMPLEX
 70
0
 40
0
 41
1
 50
0
 71
0
 42
3.5
  3
simplex
  4

  0
STYLE
  2
COMPLEX
 70
0
 40
0
 41
1
 50
0
 71
0
 42
3.5
  3
complex
  4

  0
STYLE
  2
ITALIC
 70
0
 40
0
 41
1
 50
0
 71
0
 42
3.5
  3
italic
  4

  0
ENDTAB
  0
TABLE
  2
VIEW
 70
0
  0
ENDTAB
  0
ENDSEC
  0
SECTION
  2
BLOCKS
  0
ENDSEC
  0
SECTION
  2
ENTITIES
  0
LINE
  8
1
 62
7
 10
-194.8170967288711
 20
-22.97165019754548
 30
0
 11
-270.9624538175576
 21
-22.97165019754548
 31
0
  0
LINE
  8
1
 62
7
 10
-190.6760351443044
 20
-22.17165019754543
 30
0
 11
-154.4624538175576
 21
-22.17165019754543
 31
0
  0
LINE
  8
1
 62
7
 10
-192.9127653372197
 20
-12.17165019754542
 30
0
 11
-269.0624538175576
 21
-12.17165019754542
 31
0
  0
LINE
  8
1
 62
7
 10
-188.771703752653
 20
-11.37165019754546
 30
0
 11
-152.5624538175576
 21
-11.37165019754548
 31
0
  0
LINE
  8
1
 62
7
 10
-188.6306421680862
 20
-10.57165019754547
 30
0
 11
-152.5624538175576
 21
-10.57165019754549
 31
0
  0
LINE
  8
1
 62
7
 10
-188.4895805835194
 20
-9.771650197545426
 30
0
 11
-154.4624538175576
 21
-9.771650197545426
 31
0
  0
LINE
  8
1
 62
7
 10
-190.7263107764348
 20
0.2283498024545663
 30
0
 11
-269.0624538175576
 21
0.2283498024545736
 31
0
  0
LINE
  8
1
 62
7
 10
-186.585249191868
 20
1.028349802454542
 30
0
 11
-152.5624538175576
 21
1.028349802454525
 31
0
  0
LINE
  8
1
 62
3
  6
DIVIDE
 10
-186.1591958056794
 20
3.444618625732413
 30
0
 11
-191.4574723823757
 21
-26.60340099899143
 31
0
  0
LINE
  8
1
 62
3
  6
DIVIDE
 10
-190.1591958056794
 20
3.444618625732413
 30
0
 11
-195.4574723823757
 21
-26.60340099899143
 31
0
  0
LINE
  8
1
 62
7
 10
-119.8301696601615
 20
-12.78713737758315
 30
0
 11
-118.4146824801238
 21
-11.37165019754548
 31
0
  0
LINE
  8
1
 62
7
 10
-121.8272485256231
 20
-9.162717332611745
 30
0
 11
-123.1588843132559
 21
-10.49435312024456
 31
0
  0
LINE
  8
1
 62
7
 10
-121.0880530121524
 20
-9.264978888753042
 30
0
 11
-123.1482777115381
 21
-11.32520358813876
 31
0
  0
LINE
  8
1
 62
7
 10
-121.8560495495785
 20
-9.156163017507817
 30
0
 11
-123.2715367296162
 21
-10.57165019754549
 31
0
  0
LINE
  8
1
 62
7
 10
-123.1588843132559
 20
-10.63577447648187
 30
0
 11
-121.7103934755827
 21
-9.187283638808662
 31
0
  0
LINE
  8
1
 62
7
 10
-118.527334896484
 20
-11.30752591860908
 30
0
 11
-119.9758257341573
 21
-12.7560167562823
 31
0
  0
LINE
  8
1
 62
7
 10
-118.527334896484
 20
-11.44894727484639
 30
0
 11
-118.527334896484
 21
-11.30752591860908
 31
0
  0
LINE
  8
1
 62
7
 10
-123.1588843132559
 20
-10.63577447648187
 30
0
 11
-123.1588843132559
 21
-10.49435312024456
 31
0
  0
LINE
  8
1
 62
7
 10
-123.1482777115381
 20
-11.49490921562353
 30
0
 11
-120.9242864472465
 21
-9.270917951331864
 31
0
  0
LINE
  8
1
 62
7
 10
-118.5379414982018
 20
-10.44839117946742
 30
0
 11
-120.7619327624935
 21
-12.6723824437591
 31
0
  0
LINE
  8
1
 62
7
 10
-123.1482777115381
 20
-11.32520358813876
 30
0
 11
-123.1482777115381
 21
-11.49490921562353
 31
0
  0
LINE
  8
1
 62
7
 10
-118.5379414982018
 20
-10.6180968069522
 30
0
 11
-120.5981661975876
 21
-12.67832150633792
 31
0
  0
LINE
  8
1
 62
7
 10
-118.5379414982018
 20
-10.44839117946742
 30
0
 11
-118.5379414982018
 21
-10.6180968069522
 31
0
  0
LINE
  8
1
 62
7
 10
-118.527334896484
 20
-11.44894727484639
 30
0
 11
-119.8589706841169
 21
-12.78058306247921
 31
0
  0
LINE
  8
1
 62
7
 10
-118.8773527531714
 20
-10.95750806192174
 30
0
 11
-118.527334896484
 21
-11.30752591860908
 31
0
  0
LINE
  8
1
 62
7
 10
-123.1588843132559
 20
-10.63577447648187
 30
0
 11
-122.8088664565686
 21
-10.98579233316921
 31
0
  0
LINE
  8
1
 62
7
 10
-118.4146824801238
 20
-10.57165019754549
 30
0
 11
-119.8301696601615
 21
-9.156163017507817
 31
0
  0
LINE
  8
1
 62
7
 10
-123.2715367296162
 20
-11.37165019754548
 30
0
 11
-121.8560495495785
 21
-12.78713737758315
 31
0
  0
LINE
  8
1
 62
4
  6
CENTER
 10
-123.516539588303
 20
-10.97165019754548
 30
0
 11
-118.2515202378228
 21
-10.97165019754548
 31
0
  0
LINE
  8
1
 62
7
 10
-100.1630293931718
 20
-10.63577447648187
 30
0
 11
-98.1831304058495
 21
-8.655875489159532
 31
0
  0
LINE
  8
1
 62
7
 10
-95.53147997639995
 20
-11.30752591860908
 30
0
 11
-97.51137896372229
 21
-13.28742490593142
 31
0
  0
LINE
  8
1
 62
7
 10
-97.51137896372229
 20
-13.28742490593142
 30
0
 11
-97.36995760748498
 21
-13.28742490593142
 31
0
  0
LINE
  8
1
 62
7
 10
-95.53147997639995
 20
-11.44894727484639
 30
0
 11
-95.53147997639995
 21
-11.30752591860908
 31
0
  0
LINE
  8
1
 62
7
 10
-98.32455176208681
 20
-8.655875489159532
 30
0
 11
-98.1831304058495
 21
-8.655875489159532
 31
0
  0
LINE
  8
1
 62
7
 10
-100.1630293931718
 20
-10.63577447648187
 30
0
 11
-100.1630293931718
 21
-10.49435312024456
 31
0
  0
LINE
  8
1
 62
7
 10
-100.152422791454
 20
-11.49490921562353
 30
0
 11
-97.32399566670785
 21
-8.66648209087734
 31
0
  0
LINE
  8
1
 62
7
 10
-95.54208657811775
 20
-10.44839117946742
 30
0
 11
-98.37051370286395
 21
-13.27681830421362
 31
0
  0
LINE
  8
1
 62
7
 10
-100.152422791454
 20
-11.32520358813876
 30
0
 11
-100.152422791454
 21
-11.49490921562353
 31
0
  0
LINE
  8
1
 62
7
 10
-95.54208657811775
 20
-10.6180968069522
 30
0
 11
-98.20080807537917
 21
-13.27681830421362
 31
0
  0
LINE
  8
1
 62
7
 10
-95.54208657811775
 20
-10.44839117946742
 30
0
 11
-95.54208657811775
 21
-10.6180968069522
 31
0
  0
LINE
  8
1
 62
7
 10
-97.49370129419262
 20
-8.666482090877336
 30
0
 11
-97.32399566670785
 21
-8.66648209087734
 31
0
  0
LINE
  8
1
 62
7
 10
-98.37051370286395
 20
-13.27681830421362
 30
0
 11
-98.20080807537917
 21
-13.27681830421362
 31
0
  0
LINE
  8
1
 62
7
 10
-97.49370129419262
 20
-8.666482090877336
 30
0
 11
-100.152422791454
 21
-11.32520358813876
 31
0
  0
LINE
  8
1
 62
7
 10
-97.51137896372229
 20
-13.28742490593142
 30
0
 11
-97.86139682040964
 21
-12.93740704924408
 31
0
  0
LINE
  8
1
 62
7
 10
-95.53147997639995
 20
-11.44894727484639
 30
0
 11
-97.36995760748498
 21
-13.28742490593142
 31
0
  0
LINE
  8
1
 62
7
 10
-95.8814978330873
 20
-10.95750806192174
 30
0
 11
-95.53147997639995
 21
-11.30752591860908
 31
0
  0
LINE
  8
1
 62
7
 10
-100.1630293931718
 20
-10.63577447648187
 30
0
 11
-99.8130115364845
 21
-10.98579233316921
 31
0
  0
LINE
  8
1
 62
7
 10
-98.32455176208681
 20
-8.655875489159532
 30
0
 11
-100.1630293931718
 21
-10.49435312024456
 31
0
  0
LINE
  8
1
 62
7
 10
-97.83311254916215
 20
-9.005893345846877
 30
0
 11
-98.1831304058495
 21
-8.655875489159532
 31
0
  0
LINE
  8
1
 62
7
 10
-96.0472546847859
 20
-5.971650197545481
 30
0
 11
-103.8472546847859
 21
-5.97165019754548
 31
0
  0
LINE
  8
1
 62
7
 10
-96.0472546847859
 20
-1.971650197545481
 30
0
 11
-103.8472546847859
 21
-1.97165019754548
 31
0
  0
LINE
  8
1
 62
3
  6
CENTER
 10
-90.64725468478591
 20
-3.971650197545481
 30
0
 11
-105.4072546847859
 21
-3.971650197545479
 31
0
  0
LINE
  8
1
 62
7
 10
-103.8472546847859
 20
-9.77165019754549
 30
0
 11
-103.8472546847859
 21
0.2283498024545091
 31
0
  0
LINE
  8
1
 62
7
 10
-96.0472546847859
 20
-7.971650197545481
 30
0
 11
-96.0472546847859
 21
0.02834980245451947
 31
0
  0
LINE
  8
1
 62
3
 10
-96.0472546847859
 20
-6.471650197545481
 30
0
 11
-103.8472546847859
 21
-6.47165019754548
 31
0
  0
LINE
  8
1
 62
3
 10
-96.0472546847859
 20
-1.471650197545481
 30
0
 11
-103.8472546847859
 21
-1.47165019754548
 31
0
  0
LINE
  8
1
 62
7
 10
-91.8472546847859
 20
-9.771650197545492
 30
0
 11
-91.8472546847859
 21
0.2283498024545076
 31
0
  0
LINE
  8
1
 62
7
 10
-96.0472546847859
 20
-7.971650197545481
 30
0
 11
-91.8472546847859
 21
-7.971650197545481
 31
0
  0
LINE
  8
1
 62
7
 10
-91.8472546847859
 20
0.02834980245451895
 30
0
 11
-96.0472546847859
 21
0.02834980245451947
 31
0
  0
LINE
  8
1
 62
7
 10
-100.2756818095321
 20
-10.57165019754548
 30
0
 11
-103.0472546847859
 21
-10.57165019754547
 31
0
  0
LINE
  8
1
 62
7
 10
-103.0472546847859
 20
1.02834980245452
 30
0
 11
-92.64725468478591
 21
1.028349802454519
 31
0
  0
LINE
  8
1
 62
7
 10
-95.4188275600397
 20
-10.57165019754548
 30
0
 11
-92.64725468478591
 21
-10.57165019754548
 31
0
  0
LINE
  8
1
 62
7
 10
-97.84725468478588
 20
-8.143223072799296
 30
0
 11
-100.2756818095321
 21
-10.57165019754548
 31
0
  0
LINE
  8
1
 62
7
 10
-95.4188275600397
 20
-10.57165019754548
 30
0
 11
-97.84725468478588
 21
-8.143223072799296
 31
0
  0
LINE
  8
1
 62
7
 10
-103.0472546847859
 20
1.02834980245452
 30
0
 11
-103.8472546847859
 21
0.2283498024545091
 31
0
  0
LINE
  8
1
 62
7
 10
-91.8472546847859
 20
0.2283498024545076
 30
0
 11
-92.64725468478591
 21
1.028349802454519
 31
0
  0
LINE
  8
1
 62
7
 10
-92.64725468478591
 20
-10.57165019754548
 30
0
 11
-91.8472546847859
 21
-9.771650197545492
 31
0
  0
LINE
  8
1
 62
7
 10
-103.8472546847859
 20
-9.77165019754549
 30
0
 11
-103.0472546847859
 21
-10.57165019754547
 31
0
  0
LINE
  8
1
 62
7
 10
-273.4624538175576
 20
-21.67165019754541
 30
0
 11
-274.2624538175576
 21
-20.87165019754541
 31
0
  0
LINE
  8
1
 62
7
 10
-273.4624538175576
 20
-12.67165019754542
 30
0
 11
-274.2624538175576
 21
-13.47165019754542
 31
0
  0
LINE
  8
1
 62
7
 10
-273.4624538175576
 20
-21.67165019754541
 30
0
 11
-271.7624538175576
 21
-21.67165019754541
 31
0
  0
LINE
  8
1
 62
7
 10
-273.4624538175576
 20
-12.67165019754542
 30
0
 11
-273.4624538175576
 21
-21.67165019754541
 31
0
  0
LINE
  8
1
 62
7
 10
-274.2624538175576
 20
-13.47165019754542
 30
0
 11
-274.2624538175576
 21
-20.87165019754541
 31
0
  0
LINE
  8
1
 62
7
 10
-271.7624538175576
 20
-12.67165019754541
 30
0
 11
-273.4624538175576
 21
-12.67165019754542
 31
0
  0
LINE
  8
1
 62
7
 10
-150.0624538175576
 20
-21.67165019754548
 30
0
 11
-149.2624538175576
 21
-20.87165019754548
 31
0
  0
LINE
  8
1
 62
7
 10
-150.0624538175576
 20
-12.67165019754548
 30
0
 11
-149.2624538175576
 21
-13.47165019754548
 31
0
  0
LINE
  8
1
 62
7
 10
-150.0624538175576
 20
-21.67165019754548
 30
0
 11
-151.7624538175576
 21
-21.67165019754548
 31
0
  0
LINE
  8
1
 62
7
 10
-150.0624538175576
 20
-12.67165019754548
 30
0
 11
-150.0624538175576
 21
-21.67165019754548
 31
0
  0
LINE
  8
1
 62
7
 10
-149.2624538175576
 20
-13.47165019754548
 30
0
 11
-149.2624538175576
 21
-20.87165019754548
 31
0
  0
LINE
  8
1
 62
7
 10
-151.7624538175576
 20
-12.67165019754548
 30
0
 11
-150.0624538175576
 21
-12.67165019754548
 31
0
  0
LINE
  8
1
 62
7
 10
-99.64725468478589
 20
-15.97165019754548
 30
0
 11
-91.8472546847859
 21
-15.97165019754548
 31
0
  0
LINE
  8
1
 62
7
 10
-99.64725468478589
 20
-19.97165019754548
 30
0
 11
-91.8472546847859
 21
-19.97165019754548
 31
0
  0
LINE
  8
1
 62
3
  6
CENTER
 10
-105.0472546847859
 20
-17.97165019754548
 30
0
 11
-90.28725468478589
 21
-17.97165019754548
 31
0
  0
LINE
  8
1
 62
7
 10
-91.8472546847859
 20
-12.17165019754547
 30
0
 11
-91.8472546847859
 21
-22.17165019754547
 31
0
  0
LINE
  8
1
 62
7
 10
-99.64725468478589
 20
-13.97165019754548
 30
0
 11
-99.64725468478589
 21
-21.97165019754548
 31
0
  0
LINE
  8
1
 62
3
 10
-99.64725468478589
 20
-15.47165019754548
 30
0
 11
-91.8472546847859
 21
-15.47165019754548
 31
0
  0
LINE
  8
1
 62
3
 10
-99.64725468478589
 20
-20.47165019754548
 30
0
 11
-91.8472546847859
 21
-20.47165019754548
 31
0
  0
LINE
  8
1
 62
3
  6
DASHDOT
 10
-257.193431343818
 20
-17.97165019754543
 30
0
 11
-246.215317993983
 21
-17.97165019754543
 31
0
  0
LINE
  8
1
 62
3
  6
DASHDOT
 10
-217.262052016398
 20
-17.97165019754543
 30
0
 11
-206.525215883044
 21
-17.97165019754543
 31
0
  0
LINE
  8
1
 62
3
  6
DASHDOT
 10
-176.848118256019
 20
-17.97165019754543
 30
0
 11
-166.593836555625
 21
-17.97165019754543
 31
0
  0
LINE
  8
1
 62
3
  6
DASHDOT
 10
-177.089395472499
 20
-3.971650197545415
 30
0
 11
-166.473197947385
 21
-3.971650197545415
 31
0
  0
LINE
  8
1
 62
3
  6
DASHDOT
 10
-217.020774799919
 20
-3.971650197545415
 30
0
 11
-206.404577274804
 21
-3.971650197545415
 31
0
  0
LINE
  8
1
 62
3
  6
DASHDOT
 10
-251.7624538175576
 20
0.0283498024545854
 30
0
 11
-251.7624538175576
 21
-7.971650197545415
 31
0
  0
LINE
  8
1
 62
3
  6
DASHDOT
 10
-251.7624538175576
 20
-7.971650197545415
 30
0
 11
-251.7624538175576
 21
-8.861467191588286
 31
0
  0
LINE
  8
1
 62
3
  6
DASHDOT
 10
-247.7624538175576
 20
-3.971650197545415
 30
0
 11
-246.215317993983
 21
-3.971650197545415
 31
0
  0
LINE
  8
1
 62
3
  6
DASHDOT
 10
-255.7624538175576
 20
-3.971650197545415
 30
0
 11
-254.2624538175576
 21
-3.971650197545415
 31
0
  0
LINE
  8
1
 62
3
  6
DASHDOT
 10
-254.2624538175576
 20
-3.971650197545415
 30
0
 11
-253.7624538175576
 21
-3.971650197545415
 31
0
  0
LINE
  8
1
 62
3
  6
DASHDOT
 10
-253.7624538175576
 20
-3.971650197545415
 30
0
 11
-247.7624538175576
 21
-3.971650197545415
 31
0
  0
LINE
  8
1
 62
3
  6
DASHDOT
 10
-171.7624538175576
 20
1.620921656862215
 30
0
 11
-171.7624538175576
 21
-8.861467191588286
 31
0
  0
LINE
  8
1
 62
3
  6
DASHDOT
 10
-171.7624538175576
 20
-13.21130201985689
 30
0
 11
-171.7624538175576
 21
-23.90761717133688
 31
0
  0
LINE
  8
1
 62
7
 10
-150.0624538175576
 20
-9.271650197545478
 30
0
 11
-149.2624538175576
 21
-8.471650197545477
 31
0
  0
LINE
  8
1
 62
7
 10
-150.0624538175576
 20
-0.2716501975454772
 30
0
 11
-149.2624538175576
 21
-1.071650197545477
 31
0
  0
LINE
  8
1
 62
7
 10
-151.7624538175576
 20
-22.17165019754548
 30
0
 11
-151.7624538175576
 21
-12.17165019754547
 31
0
  0
LINE
  8
1
 62
7
 10
-150.0624538175576
 20
-9.271650197545478
 30
0
 11
-151.7624538175576
 21
-9.271650197545476
 31
0
  0
LINE
  8
1
 62
7
 10
-150.0624538175576
 20
-0.2716501975454772
 30
0
 11
-150.0624538175576
 21
-9.271650197545478
 31
0
  0
LINE
  8
1
 62
7
 10
-149.2624538175576
 20
-1.071650197545477
 30
0
 11
-149.2624538175576
 21
-8.471650197545477
 31
0
  0
LINE
  8
1
 62
7
 10
-151.7624538175576
 20
-9.771650197545487
 30
0
 11
-151.7624538175576
 21
0.2283498024545132
 31
0
  0
LINE
  8
1
 62
7
 10
-151.7624538175576
 20
-0.2716501975454756
 30
0
 11
-150.0624538175576
 21
-0.2716501975454772
 31
0
  0
LINE
  8
1
 62
7
 10
-273.4624538175576
 20
-9.271650197545412
 30
0
 11
-274.2624538175576
 21
-8.471650197545412
 31
0
  0
LINE
  8
1
 62
7
 10
-273.4624538175576
 20
-0.271650197545414
 30
0
 11
-274.2624538175576
 21
-1.071650197545413
 31
0
  0
LINE
  8
1
 62
7
 10
-271.7624538175576
 20
-12.17165019754547
 30
0
 11
-271.7624538175576
 21
-22.17165019754548
 31
0
  0
LINE
  8
1
 62
7
 10
-273.4624538175576
 20
-9.271650197545412
 30
0
 11
-271.7624538175576
 21
-9.271650197545412
 31
0
  0
LINE
  8
1
 62
7
 10
-273.4624538175576
 20
-0.271650197545414
 30
0
 11
-273.4624538175576
 21
-9.271650197545412
 31
0
  0
LINE
  8
1
 62
7
 10
-271.7624538175576
 20
0.2283498024545132
 30
0
 11
-271.7624538175576
 21
-9.771650197545487
 31
0
  0
LINE
  8
1
 62
7
 10
-274.2624538175576
 20
-1.071650197545413
 30
0
 11
-274.2624538175576
 21
-8.471650197545412
 31
0
  0
LINE
  8
1
 62
7
 10
-271.7624538175576
 20
-0.271650197545412
 30
0
 11
-273.4624538175576
 21
-0.271650197545414
 31
0
  0
LINE
  8
1
 62
4
  6
CENTER
 10
-113.4263140563529
 20
-10.97165019754548
 30
0
 11
-128.3997793204108
 21
-10.97165019754548
 31
0
  0
LINE
  8
1
 62
4
  6
CENTER
 10
-145.2356110723881
 20
-10.97165019754524
 30
0
 11
-278.5323526866886
 21
-10.97165019754529
 31
0
  0
LINE
  8
1
 62
7
 10
-154.4624538175576
 20
-12.17165019754542
 30
0
 11
-188.9127653372197
 21
-12.17165019754542
 31
0
  0
LINE
  8
1
 62
7
 10
-154.4624538175576
 20
0.2283498024545629
 30
0
 11
-186.7263107764348
 21
0.2283498024545658
 31
0
  0
LINE
  8
1
 62
7
 10
-269.0624538175576
 20
-22.17165019754543
 30
0
 11
-269.0624538175576
 21
-22.97165019754542
 31
0
  0
LINE
  8
1
 62
7
 10
-269.0624538175576
 20
-11.37165019754542
 30
0
 11
-270.9624538175576
 21
-11.37165019754548
 31
0
  0
LINE
  8
1
 62
7
 10
-269.0624538175576
 20
-11.37165019754542
 30
0
 11
-269.0624538175576
 21
-12.17165019754542
 31
0
  0
LINE
  8
1
 62
7
 10
-269.0624538175576
 20
-10.57165019754543
 30
0
 11
-270.9624538175576
 21
-10.57165019754549
 31
0
  0
LINE
  8
1
 62
7
 10
-269.0624538175576
 20
-9.771650197545426
 30
0
 11
-269.0624538175576
 21
-10.57165019754543
 31
0
  0
LINE
  8
1
 62
7
 10
-269.0624538175576
 20
1.028349802454585
 30
0
 11
-270.9624538175576
 21
1.028349802454525
 31
0
  0
LINE
  8
1
 62
7
 10
-269.0624538175576
 20
1.028349802454585
 30
0
 11
-269.0624538175576
 21
0.2283498024545736
 31
0
  0
LINE
  8
1
 62
7
 10
-154.4624538175576
 20
-22.17165019754543
 30
0
 11
-154.4624538175576
 21
-22.97165019754543
 31
0
  0
LINE
  8
1
 62
7
 10
-154.4624538175576
 20
-11.37165019754543
 30
0
 11
-154.4624538175576
 21
-12.17165019754542
 31
0
  0
LINE
  8
1
 62
7
 10
-154.4624538175576
 20
-9.771650197545426
 30
0
 11
-154.4624538175576
 21
-10.57165019754543
 31
0
  0
LINE
  8
1
 62
7
 10
-154.4624538175576
 20
1.028349802454574
 30
0
 11
-154.4624538175576
 21
0.2283498024545629
 31
0
  0
LINE
  8
1
 62
4
  6
CENTER
 10
-97.8472546847859
 20
1.69958458763842
 30
0
 11
-97.8472546847859
 21
-24.88243156150498
 31
0
  0
LINE
  8
1
 62
7
 10
-103.8472546847859
 20
-12.17165019754547
 30
0
 11
-103.8472546847859
 21
-22.17165019754547
 31
0
  0
LINE
  8
1
 62
7
 10
-99.64725468478589
 20
-13.97165019754548
 30
0
 11
-103.8472546847859
 21
-13.97165019754548
 31
0
  0
LINE
  8
1
 62
7
 10
-103.8472546847859
 20
-21.97165019754548
 30
0
 11
-99.64725468478589
 21
-21.97165019754548
 31
0
  0
LINE
  8
1
 62
7
 10
-95.41882756003969
 20
-11.37165019754548
 30
0
 11
-92.64725468478591
 21
-11.37165019754548
 31
0
  0
LINE
  8
1
 62
7
 10
-92.64725468478588
 20
-22.97165019754548
 30
0
 11
-103.0472546847859
 21
-22.97165019754548
 31
0
  0
LINE
  8
1
 62
7
 10
-100.2756818095321
 20
-11.37165019754548
 30
0
 11
-103.0472546847859
 21
-11.37165019754548
 31
0
  0
LINE
  8
1
 62
7
 10
-97.8472546847859
 20
-13.80007732229166
 30
0
 11
-95.41882756003969
 21
-11.37165019754548
 31
0
  0
LINE
  8
1
 62
7
 10
-100.2756818095321
 20
-11.37165019754548
 30
0
 11
-97.8472546847859
 21
-13.80007732229166
 31
0
  0
LINE
  8
1
 62
7
 10
-92.64725468478588
 20
-22.97165019754548
 30
0
 11
-91.8472546847859
 21
-22.17165019754547
 31
0
  0
LINE
  8
1
 62
7
 10
-103.8472546847859
 20
-22.17165019754547
 30
0
 11
-103.0472546847859
 21
-22.97165019754548
 31
0
  0
LINE
  8
1
 62
7
 10
-103.0472546847859
 20
-11.37165019754548
 30
0
 11
-103.8472546847859
 21
-12.17165019754547
 31
0
  0
LINE
  8
1
 62
7
 10
-91.8472546847859
 20
-12.17165019754547
 30
0
 11
-92.64725468478591
 21
-11.37165019754548
 31
0
  0
LINE
  8
1
 62
7
 10
-152.5624538175576
 20
-22.97165019754548
 30
0
 11
-190.8170967288711
 21
-22.97165019754548
 31
0
  0
LINE
  8
1
 62
7
 10
-114.84310960487
 20
-12.17165019754547
 30
0
 11
-115.64310960487
 21
-11.37165019754548
 31
0
  0
LINE
  8
1
 62
7
 10
-126.04310960487
 20
-11.37165019754548
 30
0
 11
-126.84310960487
 21
-12.17165019754547
 31
0
  0
LINE
  8
1
 62
7
 10
-126.84310960487
 20
-22.17165019754548
 30
0
 11
-126.04310960487
 21
-22.97165019754548
 31
0
  0
LINE
  8
1
 62
7
 10
-126.84310960487
 20
-9.771650197545487
 30
0
 11
-126.04310960487
 21
-10.57165019754549
 31
0
  0
LINE
  8
1
 62
7
 10
-115.64310960487
 20
-22.97165019754548
 30
0
 11
-114.84310960487
 21
-22.17165019754548
 31
0
  0
LINE
  8
1
 62
7
 10
-115.64310960487
 20
-10.57165019754549
 30
0
 11
-114.84310960487
 21
-9.771650197545487
 31
0
  0
LINE
  8
1
 62
7
 10
-114.84310960487
 20
0.2283498024545132
 30
0
 11
-115.64310960487
 21
1.028349802454525
 31
0
  0
LINE
  8
1
 62
7
 10
-126.04310960487
 20
1.028349802454525
 30
0
 11
-126.84310960487
 21
0.2283498024545132
 31
0
  0
LINE
  8
1
 62
7
 10
-270.9624538175576
 20
1.028349802454525
 30
0
 11
-271.7624538175576
 21
0.2283498024545132
 31
0
  0
LINE
  8
1
 62
7
 10
-270.9624538175576
 20
-10.57165019754549
 30
0
 11
-271.7624538175576
 21
-9.771650197545487
 31
0
  0
LINE
  8
1
 62
7
 10
-270.9624538175576
 20
-11.37165019754548
 30
0
 11
-271.7624538175576
 21
-12.17165019754547
 31
0
  0
LINE
  8
1
 62
7
 10
-270.9624538175576
 20
-22.97165019754548
 30
0
 11
-271.7624538175576
 21
-22.17165019754548
 31
0
  0
LINE
  8
1
 62
7
 10
-151.7624538175576
 20
-22.17165019754548
 30
0
 11
-152.5624538175576
 21
-22.97165019754548
 31
0
  0
LINE
  8
1
 62
7
 10
-152.5624538175576
 20
-11.37165019754548
 30
0
 11
-151.7624538175576
 21
-12.17165019754547
 31
0
  0
LINE
  8
1
 62
7
 10
-152.5624538175576
 20
-10.57165019754549
 30
0
 11
-151.7624538175576
 21
-9.771650197545487
 31
0
  0
LINE
  8
1
 62
7
 10
-151.7624538175576
 20
0.2283498024545132
 30
0
 11
-152.5624538175576
 21
1.028349802454525
 31
0
  0
LINE
  8
1
 62
7
 10
-123.2715367296162
 20
-11.37165019754548
 30
0
 11
-126.04310960487
 21
-11.37165019754548
 31
0
  0
LINE
  8
1
 62
7
 10
-126.84310960487
 20
-22.17165019754548
 30
0
 11
-126.84310960487
 21
-12.17165019754547
 31
0
  0
LINE
  8
1
 62
7
 10
-115.64310960487
 20
-22.97165019754548
 30
0
 11
-126.04310960487
 21
-22.97165019754548
 31
0
  0
LINE
  8
1
 62
7
 10
-114.84310960487
 20
-22.17165019754548
 30
0
 11
-114.84310960487
 21
-12.17165019754547
 31
0
  0
LINE
  8
1
 62
7
 10
-118.4146824801238
 20
-11.37165019754548
 30
0
 11
-115.64310960487
 21
-11.37165019754548
 31
0
  0
LINE
  8
1
 62
7
 10
-118.4146824801238
 20
-10.57165019754549
 30
0
 11
-115.64310960487
 21
-10.57165019754549
 31
0
  0
LINE
  8
1
 62
7
 10
-114.84310960487
 20
0.2283498024545132
 30
0
 11
-114.84310960487
 21
-9.771650197545487
 31
0
  0
LINE
  8
1
 62
7
 10
-126.04310960487
 20
1.028349802454525
 30
0
 11
-115.64310960487
 21
1.028349802454525
 31
0
  0
LINE
  8
1
 62
7
 10
-126.84310960487
 20
0.2283498024545132
 30
0
 11
-126.84310960487
 21
-9.771650197545487
 31
0
  0
LINE
  8
1
 62
7
 10
-123.2715367296162
 20
-10.57165019754549
 30
0
 11
-126.04310960487
 21
-10.57165019754549
 31
0
  0
LINE
  8
1
 62
4
  6
CENTER
 10
-104.618278513762
 20
-10.97165019754548
 30
0
 11
-91.7279043242842
 21
-10.97165019754548
 31
0
  0
LINE
  8
1
 62
7
 10
-269.0624538175576
 20
1.028349802454585
 30
0
 11
-190.585249191868
 21
1.028349802454545
 31
0
  0
LINE
  8
1
 62
7
 10
-269.0624538175576
 20
-9.771650197545426
 30
0
 11
-192.4895805835194
 21
-9.771650197545426
 31
0
  0
LINE
  8
1
 62
7
 10
-269.0624538175576
 20
-10.57165019754543
 30
0
 11
-192.6306421680862
 21
-10.57165019754547
 31
0
  0
LINE
  8
1
 62
7
 10
-269.0624538175576
 20
-11.37165019754542
 30
0
 11
-192.771703752653
 21
-11.37165019754546
 31
0
  0
LINE
  8
1
 62
7
 10
-269.0624538175576
 20
-22.17165019754543
 30
0
 11
-194.6760351443044
 21
-22.17165019754543
 31
0
  0
LINE
  8
1
 62
3
  6
DASHDOT
 10
-257.193431343818
 20
-3.971650197545415
 30
0
 11
-255.7624538175576
 21
-3.971650197545415
 31
0
  0
LINE
  8
1
 62
3
  6
DASHDOT
 10
-251.7624538175576
 20
1.620921656862215
 30
0
 11
-251.7624538175576
 21
0.0283498024545854
 31
0
  0
LINE
  8
1
 62
3
  6
DASHDOT
 10
-211.7624538175576
 20
1.620921656862215
 30
0
 11
-211.7624538175576
 21
-8.861467191588286
 31
0
  0
LINE
  8
1
 62
3
  6
DASHDOT
 10
-251.7624538175576
 20
-13.21130201985689
 30
0
 11
-251.7624538175576
 21
-23.90761717133688
 31
0
  0
LINE
  8
1
 62
3
  6
DASHDOT
 10
-211.7624538175576
 20
-13.21130201985689
 30
0
 11
-211.7624538175576
 21
-23.90761717133688
 31
0
  0
LINE
  8
1
 62
7
 10
-118.4530886844594
 20
-11.03324399320948
 30
0
 11
-118.4146824801239
 21
-11.07165019754555
 31
0
  0
LINE
  8
1
 62
7
 10
-118.527334896484
 20
-11.94894727484646
 30
0
 11
-119.4659479703922
 21
-12.88756034875453
 31
0
  0
LINE
  8
1
 62
7
 10
-120.84310960487
 20
-2.721650197545319
 30
0
 11
-120.5151147032988
 21
-2.721650197545319
 31
0
  0
LINE
  8
1
 62
7
 10
-120.5151147032988
 20
-2.721650197545319
 30
0
 11
-120.4957625649431
 21
-3.830333461421493
 31
0
  0
LINE
  8
1
 62
7
 10
-120.4957625649431
 20
-3.830333461421493
 30
0
 11
-120.3127795189801
 21
-4.241320111655501
 31
0
  0
LINE
  8
1
 62
7
 10
-120.3127795189801
 20
-4.241320111655501
 30
0
 11
-119.9017928687462
 21
-4.424303157618329
 31
0
  0
LINE
  8
1
 62
7
 10
-119.9017928687462
 20
-4.424303157618329
 30
0
 11
-118.79310960487
 21
-4.443655295974327
 31
0
  0
LINE
  8
1
 62
7
 10
-118.79310960487
 20
-4.443655295974327
 30
0
 11
-118.79310960487
 21
-4.771650197545501
 31
0
  0
LINE
  8
1
 62
7
 10
-121.1711045064411
 20
-2.721650197545319
 30
0
 11
-120.84310960487
 21
-2.721650197545319
 31
0
  0
LINE
  8
1
 62
7
 10
-121.1904566447968
 20
-3.830333461421493
 30
0
 11
-121.1711045064411
 21
-2.721650197545319
 31
0
  0
LINE
  8
1
 62
7
 10
-121.3734396907599
 20
-4.241320111655501
 30
0
 11
-121.1904566447968
 21
-3.830333461421493
 31
0
  0
LINE
  8
1
 62
7
 10
-121.7844263409937
 20
-4.424303157618329
 30
0
 11
-121.3734396907599
 21
-4.241320111655501
 31
0
  0
LINE
  8
1
 62
7
 10
-122.8931096048698
 20
-4.443655295974327
 30
0
 11
-121.7844263409937
 21
-4.424303157618329
 31
0
  0
LINE
  8
1
 62
7
 10
-122.8931096048698
 20
-4.771650197545501
 30
0
 11
-122.8931096048698
 21
-4.443655295974327
 31
0
  0
LINE
  8
1
 62
7
 10
-120.5151147032988
 20
-6.821650197545456
 30
0
 11
-120.84310960487
 21
-6.821650197545456
 31
0
  0
LINE
  8
1
 62
7
 10
-120.4957625649431
 20
-5.71296693366951
 30
0
 11
-120.5151147032988
 21
-6.821650197545456
 31
0
  0
LINE
  8
1
 62
7
 10
-120.3127795189801
 20
-5.301980283435501
 30
0
 11
-120.4957625649431
 21
-5.71296693366951
 31
0
  0
LINE
  8
1
 62
7
 10
-119.9017928687462
 20
-5.118997237472446
 30
0
 11
-120.3127795189801
 21
-5.301980283435501
 31
0
  0
LINE
  8
1
 62
7
 10
-118.79310960487
 20
-5.099645099116447
 30
0
 11
-119.9017928687462
 21
-5.118997237472446
 31
0
  0
LINE
  8
1
 62
7
 10
-118.79310960487
 20
-4.771650197545501
 30
0
 11
-118.79310960487
 21
-5.099645099116447
 31
0
  0
LINE
  8
1
 62
7
 10
-120.84310960487
 20
-6.821650197545456
 30
0
 11
-121.1711045064411
 21
-6.821650197545456
 31
0
  0
LINE
  8
1
 62
7
 10
-121.1711045064411
 20
-6.821650197545456
 30
0
 11
-121.1904566447968
 21
-5.71296693366951
 31
0
  0
LINE
  8
1
 62
7
 10
-121.1904566447968
 20
-5.71296693366951
 30
0
 11
-121.3734396907599
 21
-5.301980283435501
 31
0
  0
LINE
  8
1
 62
7
 10
-121.3734396907599
 20
-5.301980283435501
 30
0
 11
-121.7844263409937
 21
-5.118997237472446
 31
0
  0
LINE
  8
1
 62
7
 10
-121.7844263409937
 20
-5.118997237472446
 30
0
 11
-122.8931096048698
 21
-5.099645099116447
 31
0
  0
LINE
  8
1
 62
7
 10
-122.8931096048698
 20
-5.099645099116447
 30
0
 11
-122.8931096048698
 21
-4.771650197545501
 31
0
  0
LINE
  8
1
 62
7
 10
-120.84310960487
 20
-15.12165019754551
 30
0
 11
-120.5151147032988
 21
-15.12165019754551
 31
0
  0
LINE
  8
1
 62
7
 10
-120.5151147032988
 20
-15.12165019754551
 30
0
 11
-120.4957625649431
 21
-16.23033346142145
 31
0
  0
LINE
  8
1
 62
7
 10
-120.4957625649431
 20
-16.23033346142145
 30
0
 11
-120.3127795189801
 21
-16.64132011165546
 31
0
  0
LINE
  8
1
 62
7
 10
-120.3127795189801
 20
-16.64132011165546
 30
0
 11
-119.9017928687462
 21
-16.82430315761852
 31
0
  0
LINE
  8
1
 62
7
 10
-119.9017928687462
 20
-16.82430315761852
 30
0
 11
-118.79310960487
 21
-16.84365529597451
 31
0
  0
LINE
  8
1
 62
7
 10
-118.79310960487
 20
-16.84365529597451
 30
0
 11
-118.79310960487
 21
-17.17165019754546
 31
0
  0
LINE
  8
1
 62
7
 10
-121.1711045064411
 20
-15.12165019754551
 30
0
 11
-120.84310960487
 21
-15.12165019754551
 31
0
  0
LINE
  8
1
 62
7
 10
-121.1904566447968
 20
-16.23033346142145
 30
0
 11
-121.1711045064411
 21
-15.12165019754551
 31
0
  0
LINE
  8
1
 62
7
 10
-121.3734396907599
 20
-16.64132011165546
 30
0
 11
-121.1904566447968
 21
-16.23033346142145
 31
0
  0
LINE
  8
1
 62
7
 10
-121.7844263409937
 20
-16.82430315761852
 30
0
 11
-121.3734396907599
 21
-16.64132011165546
 31
0
  0
LINE
  8
1
 62
7
 10
-122.8931096048698
 20
-16.84365529597451
 30
0
 11
-121.7844263409937
 21
-16.82430315761852
 31
0
  0
LINE
  8
1
 62
7
 10
-122.8931096048698
 20
-17.17165019754546
 30
0
 11
-122.8931096048698
 21
-16.84365529597451
 31
0
  0
LINE
  8
1
 62
7
 10
-120.5151147032988
 20
-19.22165019754542
 30
0
 11
-120.84310960487
 21
-19.22165019754542
 31
0
  0
LINE
  8
1
 62
7
 10
-120.4957625649431
 20
-18.11296693366947
 30
0
 11
-120.5151147032988
 21
-19.22165019754542
 31
0
  0
LINE
  8
1
 62
7
 10
-120.3127795189801
 20
-17.70198028343546
 30
0
 11
-120.4957625649431
 21
-18.11296693366947
 31
0
  0
LINE
  8
1
 62
7
 10
-119.9017928687462
 20
-17.51899723747241
 30
0
 11
-120.3127795189801
 21
-17.70198028343546
 31
0
  0
LINE
  8
1
 62
7
 10
-118.79310960487
 20
-17.49964509911641
 30
0
 11
-119.9017928687462
 21
-17.51899723747241
 31
0
  0
LINE
  8
1
 62
7
 10
-118.79310960487
 20
-17.17165019754546
 30
0
 11
-118.79310960487
 21
-17.49964509911641
 31
0
  0
LINE
  8
1
 62
7
 10
-120.84310960487
 20
-19.22165019754542
 30
0
 11
-121.1711045064411
 21
-19.22165019754542
 31
0
  0
LINE
  8
1
 62
7
 10
-121.1711045064411
 20
-19.22165019754542
 30
0
 11
-121.1904566447968
 21
-18.11296693366947
 31
0
  0
LINE
  8
1
 62
7
 10
-121.1904566447968
 20
-18.11296693366947
 30
0
 11
-121.3734396907599
 21
-17.70198028343546
 31
0
  0
LINE
  8
1
 62
7
 10
-121.3734396907599
 20
-17.70198028343546
 30
0
 11
-121.7844263409937
 21
-17.51899723747241
 31
0
  0
LINE
  8
1
 62
7
 10
-121.7844263409937
 20
-17.51899723747241
 30
0
 11
-122.8931096048698
 21
-17.49964509911641
 31
0
  0
LINE
  8
1
 62
7
 10
-122.8931096048698
 20
-17.49964509911641
 30
0
 11
-122.8931096048698
 21
-17.17165019754546
 31
0
  0
ARC
  8
1
 62
7
 10
-120.84310960487
 20
-17.17165019754546
 30
0
 40
4.999999999999993
 50
106.522578488412
 51
73.47742151158819
  0
ARC
  8
1
 62
7
 10
-120.84310960487
 20
-4.771650197545501
 30
0
 40
4.999999999999992
 50
286.5225784884119
 51
253.4774215115881
  0
ARC
  8
1
 62
7
  6
DASHED
 10
-251.7624538175576
 20
-3.971650197545415
 30
0
 40
4
 50
0
 51
90
  0
ARC
  8
1
 62
7
  6
DASHED
 10
-251.7624538175576
 20
-3.971650197545415
 30
0
 40
4
 50
180
 51
270
  0
ARC
  8
1
 62
7
  6
DASHED
 10
-251.7624538175576
 20
-3.971650197545415
 30
0
 40
4
 50
90
 51
180
  0
ARC
  8
1
 62
7
  6
DASHED
 10
-251.7624538175576
 20
-3.971650197545415
 30
0
 40
4
 50
270
 51
0
  0
ARC
  8
1
 62
7
 10
-160.086358928075
 20
-17.17165019754543
 30
0
 40
7.525178316299469
 50
318.3609222916265
 51
41.63907770837354
  0
ARC
  8
1
 62
7
 10
-160.0383638102189
 20
-4.771650197545426
 30
0
 40
7.489377293624633
 50
318.1169567405858
 51
41.88304325941414
  0
ARC
  8
1
 62
7
 10
-263.4407291558214
 20
-17.17165019754543
 30
0
 40
7.523548908086741
 50
138.3498891552837
 51
221.6501108447162
  0
ARC
  8
1
 62
7
 10
-263.4467893874081
 20
-4.771650197545428
 30
0
 40
7.519021677854513
 50
138.3191990913788
 51
221.6808009086212
  0
CIRCLE
  8
1
 62
7
 10
-171.7624538175576
 20
-17.97165019754543
 30
0
 40
2
  0
CIRCLE
  8
1
 62
3
 10
-171.7624538175576
 20
-17.97165019754543
 30
0
 40
2.5
  0
CIRCLE
  8
1
 62
3
 10
-211.7624538175576
 20
-17.97165019754543
 30
0
 40
2.5
  0
CIRCLE
  8
1
 62
7
 10
-211.7624538175576
 20
-17.97165019754543
 30
0
 40
2
  0
CIRCLE
  8
1
 62
7
 10
-251.7624538175576
 20
-17.97165019754543
 30
0
 40
2
  0
CIRCLE
  8
1
 62
3
 10
-251.7624538175576
 20
-17.97165019754543
 30
0
 40
2.5
  0
CIRCLE
  8
1
 62
7
 10
-171.7624538175576
 20
-3.971650197545426
 30
0
 40
2
  0
CIRCLE
  8
1
 62
3
 10
-171.7624538175576
 20
-3.971650197545426
 30
0
 40
2.5
  0
CIRCLE
  8
1
 62
7
 10
-211.7624538175576
 20
-3.971650197545426
 30
0
 40
2
  0
CIRCLE
  8
1
 62
3
 10
-211.7624538175576
 20
-3.971650197545426
 30
0
 40
2.5
  0
CIRCLE
  8
1
 62
3
 10
-251.7624538175576
 20
-3.971650197545415
 30
0
 40
2.5
  0
CIRCLE
  8
1
 62
7
 10
-251.7624538175576
 20
-3.971650197545415
 30
0
 40
2
  0
CIRCLE
  8
1
 62
7
 10
-171.7624538175576
 20
-17.97165019754543
 30
0
 40
4
  0
CIRCLE
  8
1
 62
7
  6
DASHED
 10
-171.7624538175576
 20
-3.971650197545426
 30
0
 40
4
  0
CIRCLE
  8
1
 62
7
 10
-251.7624538175576
 20
-17.97165019754543
 30
0
 40
4
  0
CIRCLE
  8
1
 62
7
 10
-211.7624538175576
 20
-17.97165019754543
 30
0
 40
4
  0
CIRCLE
  8
1
 62
7
  6
DASHED
 10
-211.7624538175576
 20
-3.971650197545426
 30
0
 40
4
  0
CIRCLE
  8
1
 62
7
 10
-120.84310960487
 20
-17.17165019754546
 30
0
 40
4.499999999999395
  0
CIRCLE
  8
1
 62
7
 10
-120.84310960487
 20
-4.771650197545501
 30
0
 40
4.500000000000304
  0
CIRCLE
  8
1
 62
7
 10
-120.84310960487
 20
-4.771650197545501
 30
0
 40
3.699999999999456
  0
CIRCLE
  8
1
 62
7
 10
-120.84310960487
 20
-17.17165019754546
 30
0
 40
3.699999999999225
  0
TEXT
  8
1
 62
2
 10
-126.01278895136
 20
-64.1598893417703
 30
0
 40
3.5
  1
UNION TOOL CO.
 41
0.72
  7
COMPLEX
  0
TEXT
  8
1
 62
2
 10
-272.898677864561
 20
22.7303548040671
 30
0
 40
3.5
  1
MODEL : G4A
 41
0.72
  7
COMPLEX
  0
ENDSEC
  0
EOF
