  0
SECTION
  2
HEADER
  9
$ACADVER
  1
AC1009
  9
$INSBASE
 10
0
 20
0
  9
$EXTMIN
 10
-81.05569148185219
 20
-15.478709426444
  9
$EXTMAX
 10
40.81892292828393
 20
54.528872390281
  9
$LIMMIN
 10
-81.05569148185219
 20
-15.478709426444
  9
$LIMMAX
 10
40.81892292828393
 20
54.528872390281
  9
$VIEWCTR
 10
10
 20
10
  9
$VIEWSIZE
 40
10
  9
$SNAPMODE
 70
0
  9
$SNAPUNIT
 10
1
 20
1
  9
$SNAPBASE
 10
0
 20
0
  9
$SNAPANG
 50
0
  9
$SNAPSTYLE
 70
0
  9
$SNAPISOPAIR
 70
0
  9
$GRIDMODE
 70
0
  9
$GRIDUNIT
 10
0
 20
0
  9
$ORTHOMODE
 70
0
  9
$REGENMODE
 70
1
  9
$FILLMODE
 70
1
  9
$QTEXTMODE
 70
0
  9
$DRAGMODE
 70
2
  9
$LTSCALE
 40
1
  9
$OSMODE
 70
0
  9
$ATTMODE
 70
1
  9
$TEXTSIZE
 40
3.5
  9
$TRACEWID
 40
0.5
  9
$TEXTSTYLE
  7
STANDARD
  9
$CLAYER
  8
0
  9
$CELTYPE
  6
BYLAYER
  9
$CECOLOR
 62
256
  9
$DIMSCALE
 40
1
  9
$DIMASZ
 40
0.18
  9
$DIMEXO
 40
0.0625
  9
$DIMDLI
 40
0.38
  9
$DIMRND
 40
0
  9
$DIMDLE
 40
0
  9
$DIMEXE
 40
0.18
  9
$DIMTP
 40
0
  9
$DIMTM
 40
0
  9
$DIMTXT
 40
0.18
  9
$DIMCEN
 40
0.09
  9
$DIMTSZ
 40
0
  9
$DIMTOL
 70
0
  9
$DIMLIM
 70
0
  9
$DIMTIH
 70
1
  9
$DIMTOH
 70
1
  9
$DIMSE1
 70
0
  9
$DIMSE2
 70
0
  9
$DIMTAD
 70
0
  9
$DIMZIN
 70
0
  9
$DIMBLK
  1

  9
$DIMASO
 70
1
  9
$DIMSHO
 70
1
  9
$DIMPOST
  1

  9
$DIMAPOST
  1

  9
$DIMALT
 70
0
  9
$DIMALTD
 70
2
  9
$DIMALTF
 40
25.4
  9
$DIMLFAC
 40
1
  9
$DIMTOFL
 70
0
  9
$DIMTVP
 40
0
  9
$DIMTIX
 70
0
  9
$DIMSOXD
 70
0
  9
$DIMSAH
 70
0
  9
$DIMBLK1
  1

  9
$DIMBLK2
  1

  9
$DIMSTYLE
  2
*UNNAMED
  9
$DIMCLRD
 70
0
  9
$DIMCLRE
 70
0
  9
$DIMCLRT
 70
0
  9
$DIMTFAC
 40
1
  9
$DIMGAP
 40
0.09
  9
$LUNITS
 70
2
  9
$LUPREC
 70
4
  9
$AXISMODE
 70
0
  9
$AXISUNIT
 10
0
 20
0
  9
$SKETCHINC
 40
0.1
  9
$FILLETRAD
 40
2
  9
$AUNITS
 70
0
  9
$AUPREC
 70
0
  9
$MENU
  1
ACAD
  9
$ELEVATION
 40
0
  9
$THICKNESS
 40
0
  9
$VIEWDIR
 10
0
 20
0
 30
1
  9
$LIMCHECK
 70
0
  9
$BLIPMODE
 70
1
  9
$CHAMFERA
 40
0
  9
$CHAMFERB
 40
0
  9
$FASTZOOM
 70
1
  9
$SKPOLY
 70
0
  9
$ANGBASE
 50
0
  9
$ANGDIR
 70
0
  9
$PDMODE
 70
0
  9
$PDSIZE
 40
0
  9
$PLINEWID
 40
0
  9
$COORDS
 70
2
  0
ENDSEC
  0
SECTION
  2
TABLES
  0
TABLE
  2
DIMSTYLE
 70
0
  0
ENDTAB
  0
TABLE
  2
LTYPE
 70
9
  0
LTYPE
  2
CONTINUOUS
 70
64
  3
Solid line
 72
65
 73
0
 40
0
  0
LTYPE
  2
BORDER
 70
64
  3
__ __ . __ __ .
 72
65
 73
6
 40
5.612646716256269
 49
1.603613347501791
 49
-0.8018066737508957
 49
1.603613347501791
 49
-0.8018066737508957
 49
0
 49
-0.8018066737508957
  0
LTYPE
  2
CENTER
 70
64
  3
____ _ ____ _
 72
65
 73
4
 40
6.414453390007165
 49
4.009033368754478
 49
-0.8018066737508957
 49
0.8018066737508957
 49
-0.8018066737508957
  0
LTYPE
  2
DASHDOT
 70
64
  3
__ . __ . __ .
 72
65
 73
4
 40
3.207226695003583
 49
1.603613347501791
 49
-0.8018066737508957
 49
0
 49
-0.8018066737508957
  0
LTYPE
  2
DASHED
 70
64
  3
__ __ __ __ __
 72
65
 73
2
 40
2.405420021252687
 49
1.603613347501791
 49
-0.8018066737508957
  0
LTYPE
  2
DIVIDE
 70
64
  3
__ . . __ . . 
 72
65
 73
6
 40
4.009033368754478
 49
1.603613347501791
 49
-0.8018066737508957
 49
0
 49
-0.8018066737508957
 49
0
 49
-0.8018066737508957
  0
LTYPE
  2
DOT
 70
64
  3
..............
 72
65
 73
4
 40
1.603613347501791
 49
0
 49
-0.8018066737508957
 49
0
 49
-0.8018066737508957
  0
LTYPE
  2
HIDDEN
 70
64
  3
_ _ _ _ _ _ _
 72
65
 73
2
 40
1.202710010626344
 49
0.8018066737508957
 49
-0.4009033368754478
  0
LTYPE
  2
PHANTOM
 70
64
  3
_____ _ _ _____ _ _ 
 72
65
 73
6
 40
8.018066737508956
 49
4.009033368754478
 49
-0.8018066737508957
 49
0.8018066737508957
 49
-0.8018066737508957
 49
0.8018066737508957
 49
-0.8018066737508957
  0
ENDTAB
  0
TABLE
  2
LAYER
 70
3
  0
LAYER
  2
1
 70
0
 62
7
  6
CONTINUOUS
  0
LAYER
  2
0
 70
0
 62
7
  6
CONTINUOUS
  0
ENDTAB
  0
TABLE
  2
STYLE
 70
4
  0
STYLE
  2
STANDARD
 70
0
 40
0
 41
1
 50
0
 71
0
 42
3.5
  3
txt
  4

  0
STYLE
  2
SIMPLEX
 70
0
 40
0
 41
1
 50
0
 71
0
 42
3.5
  3
simplex
  4

  0
STYLE
  2
COMPLEX
 70
0
 40
0
 41
1
 50
0
 71
0
 42
3.5
  3
complex
  4

  0
STYLE
  2
ITALIC
 70
0
 40
0
 41
1
 50
0
 71
0
 42
3.5
  3
italic
  4

  0
ENDTAB
  0
TABLE
  2
VIEW
 70
0
  0
ENDTAB
  0
ENDSEC
  0
SECTION
  2
BLOCKS
  0
ENDSEC
  0
SECTION
  2
ENTITIES
  0
LINE
  8
1
 62
7
 10
-31.25290565670916
 20
8.806562952347218
 30
0
 11
-78.09945491210829
 21
8.806562952347576
 31
0
  0
LINE
  8
1
 62
7
 10
-29.16474216635496
 20
9.306562952347004
 30
0
 11
-5.599454912108311
 21
9.306562952347008
 31
0
  0
LINE
  8
1
 62
7
 10
-27.82465711297062
 20
16.90656295234703
 30
0
 11
-5.599454912108286
 21
16.90656295234703
 31
0
  0
LINE
  8
1
 62
7
 10
-27.73649362261639
 20
17.40656295234703
 30
0
 11
-4.099454912108293
 21
17.40656295234703
 31
0
  0
LINE
  8
1
 62
7
 10
-27.59543203804963
 20
18.20656295234699
 30
0
 11
-4.099454912108293
 21
18.20656295234699
 31
0
  0
LINE
  8
1
 62
7
 10
-27.50726854769538
 20
18.70656295234707
 30
0
 11
-5.599454912108286
 21
18.7065629523471
 31
0
  0
LINE
  8
1
 62
7
 10
-26.16718349431104
 20
26.30656295234712
 30
0
 11
-5.57130885712335
 21
26.30656295234712
 31
0
  0
LINE
  8
1
 62
7
 10
-26.0790200039568
 20
26.80656295234712
 30
0
 11
-4.099454912108293
 21
26.80656295234712
 31
0
  0
LINE
  8
1
 62
3
  6
DIVIDE
 10
-25.79782767057693
 20
28.4012839204603
 30
0
 11
-29.65610142136839
 21
6.519926142488458
 31
0
  0
LINE
  8
1
 62
3
  6
DIVIDE
 10
-27.79782767057693
 20
28.4012839204603
 30
0
 11
-31.65610142136839
 21
6.519926142488458
 31
0
  0
LINE
  8
1
 62
7
 10
30.50905141536681
 20
16.09536454187556
 30
0
 11
32.53137680956048
 21
18.11768993606922
 31
0
  0
LINE
  8
1
 62
7
 10
29.10897998861746
 20
17.39644101925881
 30
0
 11
30.82017839908895
 21
15.68524260878731
 31
0
  0
LINE
  8
1
 62
7
 10
31.131305382811
 20
19.51776136281845
 30
0
 11
29.10897998861746
 21
17.49543596862493
 31
0
  0
LINE
  8
1
 62
7
 10
31.3201783990889
 20
19.42788329590666
 30
0
 11
31.23030033217711
 21
19.51776136281845
 31
0
  0
LINE
  8
1
 62
7
 10
31.12069878109318
 20
16.09182900796964
 30
0
 11
30.81310733127704
 21
16.39942045778578
 31
0
  0
LINE
  8
1
 62
7
 10
32.53491234346627
 20
17.43533189222407
 30
0
 11
31.19140945921184
 21
16.09182900796964
 31
0
  0
LINE
  8
1
 62
7
 10
32.22732089365013
 20
17.81363402015887
 30
0
 11
32.53491234346627
 21
17.50604257034272
 31
0
  0
LINE
  8
1
 62
7
 10
30.51965801708463
 20
19.52129689672438
 30
0
 11
30.82724946690077
 21
19.21370544690824
 31
0
  0
LINE
  8
1
 62
7
 10
29.10544445471153
 20
18.17779401246995
 30
0
 11
30.44894733896597
 21
19.52129689672438
 31
0
  0
LINE
  8
1
 62
7
 10
29.41303590452768
 20
17.79949188453514
 30
0
 11
29.10544445471153
 21
18.10708333435129
 31
0
  0
LINE
  8
1
 62
3
  6
CENTER
 10
35.62017839908908
 20
23.306562952347
 30
0
 11
26.02017839908872
 21
23.306562952347
 31
0
  0
LINE
  8
1
 62
7
 10
26.8201783990889
 20
18.706562952347
 30
0
 11
27.3201783990889
 21
18.206562952347
 31
0
  0
LINE
  8
1
 62
7
 10
34.3201783990889
 20
18.206562952347
 30
0
 11
34.8201783990889
 21
18.706562952347
 31
0
  0
LINE
  8
1
 62
7
 10
30.82017839908881
 20
19.92788329590665
 30
0
 11
32.53137680956047
 21
18.21668488543533
 31
0
  0
LINE
  8
1
 62
7
 10
29.09885805552945
 20
18.206562952347
 30
0
 11
30.82017839908881
 21
19.92788329590665
 31
0
  0
LINE
  8
1
 62
7
 10
27.3201783990889
 20
26.806562952347
 30
0
 11
26.8201783990889
 21
26.306562952347
 31
0
  0
LINE
  8
1
 62
7
 10
32.54149874264881
 20
18.206562952347
 30
0
 11
34.3201783990889
 21
18.206562952347
 31
0
  0
LINE
  8
1
 62
7
 10
34.3201783990889
 20
26.806562952347
 30
0
 11
27.3201783990889
 21
26.806562952347
 31
0
  0
LINE
  8
1
 62
7
 10
26.8201783990889
 20
26.306562952347
 30
0
 11
26.8201783990889
 21
18.706562952347
 31
0
  0
LINE
  8
1
 62
7
 10
29.09885805552945
 20
18.206562952347
 30
0
 11
27.3201783990889
 21
18.206562952347
 31
0
  0
LINE
  8
1
 62
7
 10
34.3201783990889
 20
26.806562952347
 30
0
 11
34.8201783990889
 21
26.306562952347
 31
0
  0
LINE
  8
1
 62
7
 10
34.8201783990889
 20
20.306562952347
 30
0
 11
31.720178399089
 21
20.306562952347
 31
0
  0
LINE
  8
1
 62
7
 10
34.8201783990889
 20
18.706562952347
 30
0
 11
34.8201783990889
 21
26.306562952347
 31
0
  0
LINE
  8
1
 62
7
 10
31.720178399089
 20
20.306562952347
 30
0
 11
31.720178399089
 21
26.306562952347
 31
0
  0
LINE
  8
1
 62
7
 10
31.720178399089
 20
26.306562952347
 30
0
 11
34.8201783990889
 21
26.306562952347
 31
0
  0
LINE
  8
1
 62
7
 10
31.720178399089
 20
21.65656295234703
 30
0
 11
26.8201783990889
 21
21.65656295234703
 31
0
  0
LINE
  8
1
 62
7
 10
31.720178399089
 20
24.956562952347
 30
0
 11
26.8201783990889
 21
24.956562952347
 31
0
  0
LINE
  8
1
 62
3
 10
26.8201783990889
 20
21.306562952347
 30
0
 11
31.720178399089
 21
21.306562952347
 31
0
  0
LINE
  8
1
 62
3
 10
26.8201783990889
 20
25.306562952347
 30
0
 11
31.720178399089
 21
25.306562952347
 31
0
  0
LINE
  8
1
 62
7
 10
-80.59945491210874
 20
16.35656295234696
 30
0
 11
-80.59945491210829
 21
9.856562952347076
 31
0
  0
LINE
  8
1
 62
7
 10
-80.09945491210874
 20
16.85656295234696
 30
0
 11
-80.09945491210829
 21
9.356562952347076
 31
0
  0
LINE
  8
1
 62
7
 10
-80.59945491210829
 20
25.75656295234694
 30
0
 11
-80.59945491210829
 21
19.25656295234694
 31
0
  0
LINE
  8
1
 62
7
 10
-80.09945491210829
 20
26.25656295234694
 30
0
 11
-80.09945491210829
 21
18.75656295234694
 31
0
  0
LINE
  8
1
 62
7
 10
-2.099454912108284
 20
26.25656295234694
 30
0
 11
-2.099454912108255
 21
18.75656295234694
 31
0
  0
LINE
  8
1
 62
7
 10
-1.599454912108284
 20
25.75656295234694
 30
0
 11
-1.599454912108284
 21
19.25656295234694
 31
0
  0
LINE
  8
1
 62
7
 10
-2.099454912107825
 20
16.85656295234696
 30
0
 11
-2.099454912107825
 21
9.356562952347076
 31
0
  0
LINE
  8
1
 62
7
 10
-1.599454912107825
 20
16.35656295234696
 30
0
 11
-1.599454912108284
 21
9.85656295234719
 31
0
  0
LINE
  8
1
 62
4
  6
CENTER
 10
-81.0501445609334
 20
17.80656295234701
 30
0
 11
-0.2850874346282409
 21
17.80656295234699
 31
0
  0
LINE
  8
1
 62
4
  6
CENTER
 10
30.8201783990889
 20
27.6937763176867
 30
0
 11
30.8201783990889
 21
7.588684436846052
 31
0
  0
LINE
  8
1
 62
3
  6
CENTER
 10
26.02017839908872
 20
12.30656295234701
 30
0
 11
35.62017839908908
 21
12.30656295234701
 31
0
  0
LINE
  8
1
 62
7
 10
34.82017839908892
 20
16.90656295234702
 30
0
 11
34.32017839908892
 21
17.40656295234702
 31
0
  0
LINE
  8
1
 62
7
 10
27.3201783990889
 20
17.40656295234702
 30
0
 11
26.8201783990889
 21
16.90656295234702
 31
0
  0
LINE
  8
1
 62
7
 10
32.54149874264836
 20
17.40656295234702
 30
0
 11
30.82017839908895
 21
15.68524260878731
 31
0
  0
LINE
  8
1
 62
7
 10
34.32017839908892
 20
8.806562952347008
 30
0
 11
34.82017839908892
 21
9.306562952347008
 31
0
  0
LINE
  8
1
 62
7
 10
29.09885805552899
 20
17.40656295234702
 30
0
 11
27.3201783990889
 21
17.40656295234702
 31
0
  0
LINE
  8
1
 62
7
 10
27.3201783990889
 20
8.806562952347008
 30
0
 11
34.32017839908892
 21
8.806562952347008
 31
0
  0
LINE
  8
1
 62
7
 10
34.82017839908892
 20
9.306562952347008
 30
0
 11
34.82017839908892
 21
16.90656295234702
 31
0
  0
LINE
  8
1
 62
7
 10
32.54149874264836
 20
17.40656295234702
 30
0
 11
34.32017839908892
 21
17.40656295234702
 31
0
  0
LINE
  8
1
 62
7
 10
-76.59945491210829
 20
9.306562952347008
 30
0
 11
-31.16474216635496
 21
9.306562952347006
 31
0
  0
LINE
  8
1
 62
7
 10
-76.59945491210829
 20
9.306562952347008
 30
0
 11
-76.59945491210829
 21
8.806562952347008
 31
0
  0
LINE
  8
1
 62
7
 10
-76.59945491210829
 20
17.40656295234703
 30
0
 11
-76.59945491210829
 21
16.90656295234703
 31
0
  0
LINE
  8
1
 62
7
 10
-5.599454912108311
 20
9.306562952347008
 30
0
 11
-5.599454912108285
 21
8.806562952347008
 31
0
  0
LINE
  8
1
 62
7
 10
-5.599454912108285
 20
17.40656295234703
 30
0
 11
-5.599454912108286
 21
16.90656295234703
 31
0
  0
LINE
  8
1
 62
4
  6
CENTER
 10
9.249094955028802
 20
17.80656295234701
 30
0
 11
19.84055129448643
 21
17.80656295234701
 31
0
  0
LINE
  8
1
 62
7
 10
12.87482664014533
 20
18.20656295234699
 30
0
 11
11.09614698370478
 21
18.20656295234699
 31
0
  0
LINE
  8
1
 62
7
 10
10.59614698370478
 20
26.30656295234712
 30
0
 11
10.59614698370478
 21
18.70656295234699
 31
0
  0
LINE
  8
1
 62
7
 10
11.09614698370478
 20
26.80656295234712
 30
0
 11
18.09614698370478
 21
26.80656295234712
 31
0
  0
LINE
  8
1
 62
7
 10
18.59614698370478
 20
26.30656295234712
 30
0
 11
18.59614698370478
 21
18.70656295234699
 31
0
  0
LINE
  8
1
 62
7
 10
16.31746732726469
 20
18.20656295234699
 30
0
 11
18.09614698370478
 21
18.20656295234699
 31
0
  0
LINE
  8
1
 62
7
 10
16.31746732726469
 20
17.40656295234703
 30
0
 11
18.09614698370478
 21
17.40656295234703
 31
0
  0
LINE
  8
1
 62
7
 10
18.59614698370478
 20
9.306562952347008
 30
0
 11
18.59614698370478
 21
16.90656295234703
 31
0
  0
LINE
  8
1
 62
7
 10
11.09614698370478
 20
8.806562952347008
 30
0
 11
18.09614698370478
 21
8.806562952347008
 31
0
  0
LINE
  8
1
 62
7
 10
10.59614698370478
 20
9.306562952347008
 30
0
 11
10.59614698370478
 21
16.90656295234703
 31
0
  0
LINE
  8
1
 62
7
 10
12.87482664014533
 20
17.40656295234703
 30
0
 11
11.09614698370478
 21
17.40656295234703
 31
0
  0
LINE
  8
1
 62
7
 10
-78.59945491210829
 20
9.306562952347008
 30
0
 11
-78.59945491210829
 21
16.90656295234703
 31
0
  0
LINE
  8
1
 62
3
  6
CENTER
 10
-45.32887889176509
 20
12.30656295234701
 30
0
 11
-36.9165110542495
 21
12.30656295234701
 31
0
  0
LINE
  8
1
 62
3
  6
CENTER
 10
-41.09945491210829
 20
8.300657148601616
 30
0
 11
-41.09945491210829
 21
16.3006571486015
 31
0
  0
LINE
  8
1
 62
3
  6
CENTER
 10
-70.32887889176509
 20
12.30656295234701
 30
0
 11
-63.84945491210829
 21
12.30656295234701
 31
0
  0
LINE
  8
1
 62
3
  6
CENTER
 10
-66.09945491210829
 20
8.300657148601616
 30
0
 11
-66.09945491210829
 21
16.3006571486015
 31
0
  0
LINE
  8
1
 62
3
  6
CENTER
 10
-11.8149089175348
 20
12.30656295234701
 30
0
 11
-20.32887889176509
 21
12.30656295234701
 31
0
  0
LINE
  8
1
 62
3
  6
CENTER
 10
-16.09945491210829
 20
16.3006571486015
 30
0
 11
-16.09945491210829
 21
7.50656295234694
 31
0
  0
LINE
  8
1
 62
7
 10
-4.099454912108293
 20
17.40656295234703
 30
0
 11
-3.599454912108284
 21
16.90656295234703
 31
0
  0
LINE
  8
1
 62
7
 10
-3.599454912108284
 20
9.306562952347008
 30
0
 11
-4.099454912108293
 21
8.806562952347008
 31
0
  0
LINE
  8
1
 62
7
 10
-78.09945491210829
 20
8.806562952347576
 30
0
 11
-78.59945491210829
 21
9.306562952347008
 31
0
  0
LINE
  8
1
 62
7
 10
-78.09945491210829
 20
17.40656295234703
 30
0
 11
-78.59945491210829
 21
16.90656295234703
 31
0
  0
LINE
  8
1
 62
7
 10
11.09614698370478
 20
26.80656295234712
 30
0
 11
10.59614698370478
 21
26.30656295234712
 31
0
  0
LINE
  8
1
 62
7
 10
18.59614698370478
 20
26.30656295234712
 30
0
 11
18.09614698370478
 21
26.80656295234712
 31
0
  0
LINE
  8
1
 62
7
 10
18.09614698370478
 20
18.20656295234699
 30
0
 11
18.59614698370478
 21
18.70656295234699
 31
0
  0
LINE
  8
1
 62
7
 10
10.59614698370478
 20
18.70656295234699
 30
0
 11
11.09614698370478
 21
18.20656295234699
 31
0
  0
LINE
  8
1
 62
7
 10
10.59614698370478
 20
9.306562952347008
 30
0
 11
11.09614698370478
 21
8.806562952347008
 31
0
  0
LINE
  8
1
 62
7
 10
18.09614698370478
 20
8.806562952347008
 30
0
 11
18.59614698370478
 21
9.306562952347008
 31
0
  0
LINE
  8
1
 62
7
 10
11.09614698370478
 20
17.40656295234703
 30
0
 11
10.59614698370478
 21
16.90656295234703
 31
0
  0
LINE
  8
1
 62
7
 10
18.59614698370478
 20
16.90656295234703
 30
0
 11
18.09614698370478
 21
17.40656295234703
 31
0
  0
LINE
  8
1
 62
7
 10
-3.599454912108284
 20
9.356562952347076
 30
0
 11
-2.099454912107825
 21
9.356562952347076
 31
0
  0
LINE
  8
1
 62
7
 10
-3.599454912108284
 20
16.85656295234696
 30
0
 11
-2.099454912107825
 21
16.85656295234696
 31
0
  0
LINE
  8
1
 62
7
 10
-3.599454912108284
 20
16.90656295234703
 30
0
 11
-3.599454912108284
 21
9.306562952347008
 31
0
  0
LINE
  8
1
 62
7
 10
-2.099454912107825
 20
16.85656295234696
 30
0
 11
-1.599454912107825
 21
16.35656295234696
 31
0
  0
LINE
  8
1
 62
7
 10
-2.099454912107825
 20
9.356562952347076
 30
0
 11
-1.599454912108284
 21
9.85656295234719
 31
0
  0
LINE
  8
1
 62
7
 10
-80.59945491210829
 20
9.856562952347076
 30
0
 11
-80.09945491210829
 21
9.356562952347076
 31
0
  0
LINE
  8
1
 62
7
 10
-80.59945491210874
 20
16.35656295234696
 30
0
 11
-80.09945491210874
 21
16.85656295234696
 31
0
  0
LINE
  8
1
 62
7
 10
-80.09945491210874
 20
16.85656295234696
 30
0
 11
-78.59945491210829
 21
16.85656295234696
 31
0
  0
LINE
  8
1
 62
7
 10
-80.09945491210829
 20
9.356562952347076
 30
0
 11
-78.59945491210829
 21
9.356562952347076
 31
0
  0
LINE
  8
1
 62
7
 10
-78.59945491210829
 20
26.25656295234694
 30
0
 11
-80.09945491210829
 21
26.25656295234694
 31
0
  0
LINE
  8
1
 62
7
 10
-78.59945491210829
 20
18.75656295234694
 30
0
 11
-80.09945491210829
 21
18.75656295234694
 31
0
  0
LINE
  8
1
 62
7
 10
-80.09945491210829
 20
18.75656295234694
 30
0
 11
-80.59945491210829
 21
19.25656295234694
 31
0
  0
LINE
  8
1
 62
7
 10
-80.09945491210829
 20
26.25656295234694
 30
0
 11
-80.59945491210829
 21
25.75656295234694
 31
0
  0
LINE
  8
1
 62
7
 10
-1.599454912108284
 20
25.75656295234694
 30
0
 11
-2.099454912108284
 21
26.25656295234694
 31
0
  0
LINE
  8
1
 62
7
 10
-1.599454912108284
 20
19.25656295234694
 30
0
 11
-2.099454912108255
 21
18.75656295234694
 31
0
  0
LINE
  8
1
 62
7
 10
-3.599454912108284
 20
18.70656295234699
 30
0
 11
-3.599454912108284
 21
26.30656295234712
 31
0
  0
LINE
  8
1
 62
7
 10
-2.099454912108255
 20
18.75656295234694
 30
0
 11
-3.599454912108284
 21
18.75656295234694
 31
0
  0
LINE
  8
1
 62
7
 10
-2.099454912108284
 20
26.25656295234694
 30
0
 11
-3.599454912108284
 21
26.25656295234694
 31
0
  0
LINE
  8
1
 62
7
 10
-78.59945491210829
 20
18.70656295234699
 30
0
 11
-78.09945491210829
 21
18.20656295234699
 31
0
  0
LINE
  8
1
 62
7
 10
-78.59945491210829
 20
26.30656295234712
 30
0
 11
-78.09945491210829
 21
26.80656295234712
 31
0
  0
LINE
  8
1
 62
7
 10
-4.099454912108293
 20
26.80656295234712
 30
0
 11
-3.599454912108284
 21
26.30656295234712
 31
0
  0
LINE
  8
1
 62
7
 10
-3.599454912108284
 20
18.70656295234699
 30
0
 11
-4.099454912108293
 21
18.20656295234699
 31
0
  0
LINE
  8
1
 62
3
  6
CENTER
 10
-11.8149089175348
 20
23.30656295234701
 30
0
 11
-13.09945491210829
 21
23.30656295234701
 31
0
  0
LINE
  8
1
 62
3
  6
CENTER
 10
-66.09945491210829
 20
19.3006571486015
 30
0
 11
-66.09945491210829
 21
26.50656295234694
 31
0
  0
LINE
  8
1
 62
3
  6
CENTER
 10
-41.09945491210829
 20
19.3006571486015
 30
0
 11
-41.09945491210829
 21
26.50656295234694
 31
0
  0
LINE
  8
1
 62
3
  6
CENTER
 10
-36.9165110542495
 20
23.30656295234701
 30
0
 11
-45.32887889176509
 21
23.30656295234701
 31
0
  0
LINE
  8
1
 62
3
  6
CENTER
 10
-16.09945491210829
 20
20.10656295234696
 30
0
 11
-16.09945491210829
 21
26.50656295234694
 31
0
  0
LINE
  8
1
 62
7
 10
-78.59945491210829
 20
18.70656295234699
 30
0
 11
-78.59945491210829
 21
26.30656295234712
 31
0
  0
LINE
  8
1
 62
7
 10
-5.599454912108286
 20
18.7065629523471
 30
0
 11
-5.599454912108285
 21
18.20656295234721
 31
0
  0
LINE
  8
1
 62
7
 10
-5.599454912108294
 20
26.80656295234712
 30
0
 11
-5.599454912107825
 21
26.30656295234735
 31
0
  0
LINE
  8
1
 62
7
 10
-76.59945491210829
 20
18.70656295234699
 30
0
 11
-76.59945491210829
 21
18.20656295234699
 31
0
  0
LINE
  8
1
 62
7
 10
-78.09945491210829
 20
18.20656295234699
 30
0
 11
-29.59543203804962
 21
18.20656295234699
 31
0
  0
LINE
  8
1
 62
7
 10
-76.59945491210829
 20
26.80656295234712
 30
0
 11
-76.59945491210829
 21
26.30656295234712
 31
0
  0
LINE
  8
1
 62
7
 10
-78.09945491210829
 20
26.80656295234712
 30
0
 11
-28.0790200039568
 21
26.80656295234712
 31
0
  0
LINE
  8
1
 62
7
 10
-76.59945491210829
 20
18.70656295234699
 30
0
 11
-29.50726854769537
 21
18.70656295234706
 31
0
  0
LINE
  8
1
 62
3
  6
CENTER
 10
-20.32887889176509
 20
23.30656295234701
 30
0
 11
-13.09945491210829
 21
23.30656295234701
 31
0
  0
LINE
  8
1
 62
3
  6
CENTER
 10
-70.32887889176509
 20
23.30656295234701
 30
0
 11
-64.4494549121082
 21
23.30656295234701
 31
0
  0
LINE
  8
1
 62
3
  6
CENTER
 10
-64.09945491210829
 20
23.30656295234701
 30
0
 11
-61.9165110542495
 21
23.30656295234701
 31
0
  0
LINE
  8
1
 62
3
  6
CENTER
 10
-64.4494549121082
 20
23.30656295234701
 30
0
 11
-64.09945491210829
 21
23.30656295234701
 31
0
  0
LINE
  8
1
 62
3
  6
CENTER
 10
-63.84945491210829
 20
12.30656295234701
 30
0
 11
-61.9165110542495
 21
12.30656295234701
 31
0
  0
LINE
  8
1
 62
7
 10
27.3201783990889
 20
8.806562952347008
 30
0
 11
26.8201783990889
 21
9.306562952347008
 31
0
  0
LINE
  8
1
 62
7
 10
26.8201783990889
 20
15.30656295234701
 30
0
 11
29.92017839908881
 21
15.30656295234701
 31
0
  0
LINE
  8
1
 62
7
 10
26.8201783990889
 20
16.90656295234702
 30
0
 11
26.8201783990889
 21
9.306562952347008
 31
0
  0
LINE
  8
1
 62
7
 10
29.92017839908881
 20
15.30656295234701
 30
0
 11
29.92017839908881
 21
9.306562952347008
 31
0
  0
LINE
  8
1
 62
7
 10
29.92017839908881
 20
9.306562952347008
 30
0
 11
26.8201783990889
 21
9.306562952347008
 31
0
  0
LINE
  8
1
 62
7
 10
29.92017839908881
 20
13.95656295234698
 30
0
 11
34.82017839908892
 21
13.95656295234698
 31
0
  0
LINE
  8
1
 62
7
 10
29.92017839908881
 20
10.65656295234702
 30
0
 11
34.82017839908892
 21
10.65656295234702
 31
0
  0
LINE
  8
1
 62
3
 10
34.82017839908892
 20
14.30656295234701
 30
0
 11
29.92017839908881
 21
14.30656295234701
 31
0
  0
LINE
  8
1
 62
3
 10
34.82017839908892
 20
10.30656295234701
 30
0
 11
29.92017839908881
 21
10.30656295234701
 31
0
  0
LINE
  8
1
 62
7
 10
-76.59945491210829
 20
26.30656295234712
 30
0
 11
-28.16718349431104
 21
26.30656295234712
 31
0
  0
LINE
  8
1
 62
7
 10
-78.09945491210829
 20
17.40656295234703
 30
0
 11
-29.73649362261639
 21
17.40656295234703
 31
0
  0
LINE
  8
1
 62
7
 10
-76.59945491210829
 20
16.90656295234703
 30
0
 11
-29.82465711297062
 21
16.90656295234703
 31
0
  0
LINE
  8
1
 62
7
 10
-4.099454912108293
 20
8.806562952347008
 30
0
 11
-29.25290565670916
 21
8.806562952347203
 31
0
  0
LINE
  8
1
 62
4
  6
DASHDOT
 10
26.59113695356152
 20
17.80656295234701
 30
0
 11
34.87946137243593
 21
17.80656295234701
 31
0
  0
LINE
  8
1
 62
7
 10
31.23030033217711
 20
19.51776136281845
 30
0
 11
31.131305382811
 21
19.51776136281845
 31
0
  0
LINE
  8
1
 62
7
 10
30.4100564660007
 20
16.09536454187556
 30
0
 11
30.50905141536681
 21
16.09536454187556
 31
0
  0
LINE
  8
1
 62
7
 10
29.10897998861746
 20
17.49543596862493
 30
0
 11
29.10897998861746
 21
17.39644101925881
 31
0
  0
LINE
  8
1
 62
7
 10
29.10544445471153
 20
18.10708333435129
 30
0
 11
29.10544445471153
 21
18.17779401246995
 31
0
  0
LINE
  8
1
 62
7
 10
30.44894733896597
 20
19.52129689672438
 30
0
 11
30.51965801708463
 21
19.52129689672438
 31
0
  0
LINE
  8
1
 62
7
 10
32.53491234346627
 20
17.50604257034272
 30
0
 11
32.53491234346627
 21
17.43533189222407
 31
0
  0
LINE
  8
1
 62
7
 10
31.19140945921184
 20
16.09182900796964
 30
0
 11
31.12069878109318
 21
16.09182900796964
 31
0
  0
LINE
  8
1
 62
7
 10
32.53137680956047
 20
18.21668488543533
 30
0
 11
32.53137680956048
 21
18.11768993606922
 31
0
  0
LINE
  8
1
 62
7
 10
32.53137680956047
 20
18.21668488543533
 30
0
 11
32.54149874264881
 21
18.206562952347
 31
0
  0
LINE
  8
1
 62
7
 10
32.53137680956047
 20
18.21668488543533
 30
0
 11
30.4100564660007
 21
16.09536454187556
 31
0
  0
LINE
  8
1
 62
7
 10
31.23030033217711
 20
19.51776136281845
 30
0
 11
29.10897998861746
 21
17.39644101925881
 31
0
  0
LINE
  8
1
 62
7
 10
29.10897998861746
 20
17.39644101925881
 30
0
 11
29.09885805552899
 21
17.40656295234702
 31
0
  0
LINE
  8
1
 62
7
 10
30.51965801708463
 20
19.52129689672438
 30
0
 11
29.10544445471153
 21
18.10708333435129
 31
0
  0
LINE
  8
1
 62
7
 10
32.53491234346627
 20
17.50604257034272
 30
0
 11
31.12069878109318
 21
16.09182900796964
 31
0
  0
LINE
  8
1
 62
7
 10
12.88494857323334
 20
17.39644101925881
 30
0
 11
13.56442593832708
 21
16.71696365416494
 31
0
  0
LINE
  8
1
 62
7
 10
16.31088092808217
 20
17.43533189222407
 30
0
 11
15.60028201925043
 21
16.72473298339234
 31
0
  0
LINE
  8
1
 62
7
 10
16.00328947826602
 20
17.81363402015887
 30
0
 11
16.31088092808217
 21
17.50604257034272
 31
0
  0
LINE
  8
1
 62
7
 10
12.88141303932741
 20
18.17779401246995
 30
0
 11
13.59201194815905
 21
18.88839292130158
 31
0
  0
LINE
  8
1
 62
7
 10
13.18900448914356
 20
17.79949188453514
 30
0
 11
12.88141303932741
 21
18.10708333435129
 31
0
  0
LINE
  8
1
 62
7
 10
12.87482664014533
 20
18.20656295234699
 30
0
 11
13.56442593832708
 21
18.89616225052896
 31
0
  0
LINE
  8
1
 62
7
 10
16.31746732726469
 20
17.40656295234703
 30
0
 11
15.6278680290827
 21
16.71696365416517
 31
0
  0
LINE
  8
1
 62
7
 10
12.88494857323334
 20
17.49543596862493
 30
0
 11
12.88494857323334
 21
17.39644101925881
 31
0
  0
LINE
  8
1
 62
7
 10
12.88141303932741
 20
18.10708333435129
 30
0
 11
12.88141303932741
 21
18.17779401246995
 31
0
  0
LINE
  8
1
 62
7
 10
16.31088092808217
 20
17.50604257034272
 30
0
 11
16.31088092808217
 21
17.43533189222407
 31
0
  0
LINE
  8
1
 62
7
 10
16.30734539417636
 20
18.21668488543533
 30
0
 11
16.30734539417636
 21
18.11768993606922
 31
0
  0
LINE
  8
1
 62
7
 10
16.30734539417636
 20
18.21668488543533
 30
0
 11
16.31746732726469
 21
18.20656295234699
 31
0
  0
LINE
  8
1
 62
7
 10
16.30734539417636
 20
18.21668488543533
 30
0
 11
14.93667308839783
 21
16.8460125796568
 31
0
  0
LINE
  8
1
 62
7
 10
12.88494857323334
 20
17.39644101925881
 30
0
 11
12.87482664014533
 21
17.40656295234703
 31
0
  0
LINE
  8
1
 62
7
 10
16.31088092808217
 20
17.50604257034272
 30
0
 11
15.54457224768479
 21
16.73973388994536
 31
0
  0
LINE
  8
1
 62
7
 10
15.0264083157188
 20
16.83675285761166
 30
0
 11
16.30734539417636
 21
18.11768993606922
 31
0
  0
LINE
  8
1
 62
7
 10
13.64772171972469
 20
18.87339201474856
 30
0
 11
12.88141303932741
 21
18.10708333435129
 31
0
  0
LINE
  8
1
 62
7
 10
14.16588565169067
 20
18.77637304708225
 30
0
 11
12.88494857323334
 21
17.49543596862493
 31
0
  0
LINE
  8
1
 62
7
 10
14.25562087901164
 20
18.7671133250371
 30
0
 11
12.88494857323334
 21
17.39644101925881
 31
0
  0
LINE
  8
1
 62
7
 10
15.62786802908249
 20
18.89616225052896
 30
0
 11
16.30734539417636
 21
18.21668488543533
 31
0
  0
LINE
  8
1
 62
7
 10
14.59614698370478
 20
11.80656295234696
 30
0
 11
14.36977936021725
 21
11.80656295234696
 31
0
  0
LINE
  8
1
 62
7
 10
13.29614698370479
 20
12.88019532885945
 30
0
 11
13.29614698370478
 21
13.10656295234696
 31
0
  0
LINE
  8
1
 62
7
 10
14.35694073009591
 20
12.54208757939226
 30
0
 11
14.25673572873518
 21
12.76715169737736
 31
0
  0
LINE
  8
1
 62
7
 10
14.25673572873518
 20
12.76715169737736
 30
0
 11
14.03167161075004
 21
12.86735669873806
 31
0
  0
LINE
  8
1
 62
7
 10
14.36977936021725
 20
11.80656295234696
 30
0
 11
14.35694073009591
 21
12.54208757939226
 31
0
  0
LINE
  8
1
 62
7
 10
14.03167161075004
 20
12.86735669873806
 30
0
 11
13.29614698370479
 21
12.88019532885945
 31
0
  0
LINE
  8
1
 62
7
 10
14.82251460719232
 20
11.80656295234696
 30
0
 11
14.59614698370478
 21
11.80656295234696
 31
0
  0
LINE
  8
1
 62
7
 10
15.89614698370479
 20
13.10656295234696
 30
0
 11
15.89614698370479
 21
12.88019532885945
 31
0
  0
LINE
  8
1
 62
7
 10
14.93555823867433
 20
12.76715169737736
 30
0
 11
14.83535323731371
 21
12.54208757939226
 31
0
  0
LINE
  8
1
 62
7
 10
15.16062235665953
 20
12.86735669873806
 30
0
 11
14.93555823867433
 21
12.76715169737736
 31
0
  0
LINE
  8
1
 62
7
 10
14.83535323731371
 20
12.54208757939226
 30
0
 11
14.82251460719232
 21
11.80656295234696
 31
0
  0
LINE
  8
1
 62
7
 10
15.89614698370479
 20
12.88019532885945
 30
0
 11
15.16062235665953
 21
12.86735669873806
 31
0
  0
LINE
  8
1
 62
7
 10
14.36977936021725
 20
14.40656295234696
 30
0
 11
14.59614698370478
 21
14.40656295234696
 31
0
  0
LINE
  8
1
 62
7
 10
13.29614698370478
 20
13.10656295234696
 30
0
 11
13.29614698370479
 21
13.33293057583447
 31
0
  0
LINE
  8
1
 62
7
 10
14.25673572873518
 20
13.44597420731657
 30
0
 11
14.35694073009591
 21
13.67103832530166
 31
0
  0
LINE
  8
1
 62
7
 10
14.03167161075004
 20
13.34576920595586
 30
0
 11
14.25673572873518
 21
13.44597420731657
 31
0
  0
LINE
  8
1
 62
7
 10
14.35694073009591
 20
13.67103832530166
 30
0
 11
14.36977936021725
 21
14.40656295234696
 31
0
  0
LINE
  8
1
 62
7
 10
13.29614698370479
 20
13.33293057583447
 30
0
 11
14.03167161075004
 21
13.34576920595586
 31
0
  0
LINE
  8
1
 62
7
 10
14.59614698370478
 20
14.40656295234696
 30
0
 11
14.82251460719232
 21
14.40656295234696
 31
0
  0
LINE
  8
1
 62
7
 10
15.89614698370479
 20
13.33293057583447
 30
0
 11
15.89614698370479
 21
13.10656295234696
 31
0
  0
LINE
  8
1
 62
7
 10
14.83535323731371
 20
13.67103832530166
 30
0
 11
14.93555823867433
 21
13.44597420731657
 31
0
  0
LINE
  8
1
 62
7
 10
14.93555823867433
 20
13.44597420731657
 30
0
 11
15.16062235665953
 21
13.34576920595586
 31
0
  0
LINE
  8
1
 62
7
 10
14.82251460719232
 20
14.40656295234696
 30
0
 11
14.83535323731371
 21
13.67103832530166
 31
0
  0
LINE
  8
1
 62
7
 10
15.16062235665953
 20
13.34576920595586
 30
0
 11
15.89614698370479
 21
13.33293057583447
 31
0
  0
LINE
  8
1
 62
7
 10
14.59614698370478
 20
21.20656295234694
 30
0
 11
14.36977936021725
 21
21.20656295234694
 31
0
  0
LINE
  8
1
 62
7
 10
13.29614698370479
 20
22.28019532885943
 30
0
 11
13.29614698370478
 21
22.50656295234694
 31
0
  0
LINE
  8
1
 62
7
 10
14.35694073009591
 20
21.94208757939224
 30
0
 11
14.25673572873518
 21
22.16715169737734
 31
0
  0
LINE
  8
1
 62
7
 10
14.25673572873518
 20
22.16715169737734
 30
0
 11
14.03167161075004
 21
22.26735669873804
 31
0
  0
LINE
  8
1
 62
7
 10
14.36977936021725
 20
21.20656295234694
 30
0
 11
14.35694073009591
 21
21.94208757939224
 31
0
  0
LINE
  8
1
 62
7
 10
14.03167161075004
 20
22.26735669873804
 30
0
 11
13.29614698370479
 21
22.28019532885943
 31
0
  0
LINE
  8
1
 62
7
 10
14.82251460719232
 20
21.20656295234694
 30
0
 11
14.59614698370478
 21
21.20656295234694
 31
0
  0
LINE
  8
1
 62
7
 10
15.89614698370479
 20
22.50656295234694
 30
0
 11
15.89614698370479
 21
22.28019532885943
 31
0
  0
LINE
  8
1
 62
7
 10
14.93555823867433
 20
22.16715169737734
 30
0
 11
14.83535323731371
 21
21.94208757939224
 31
0
  0
LINE
  8
1
 62
7
 10
15.16062235665953
 20
22.26735669873804
 30
0
 11
14.93555823867433
 21
22.16715169737734
 31
0
  0
LINE
  8
1
 62
7
 10
14.83535323731371
 20
21.94208757939224
 30
0
 11
14.82251460719232
 21
21.20656295234694
 31
0
  0
LINE
  8
1
 62
7
 10
15.89614698370479
 20
22.28019532885943
 30
0
 11
15.16062235665953
 21
22.26735669873804
 31
0
  0
LINE
  8
1
 62
7
 10
14.36977936021725
 20
23.80656295234694
 30
0
 11
14.59614698370478
 21
23.80656295234694
 31
0
  0
LINE
  8
1
 62
7
 10
13.29614698370478
 20
22.50656295234694
 30
0
 11
13.29614698370479
 21
22.73293057583445
 31
0
  0
LINE
  8
1
 62
7
 10
14.25673572873518
 20
22.84597420731654
 30
0
 11
14.35694073009591
 21
23.07103832530164
 31
0
  0
LINE
  8
1
 62
7
 10
14.03167161075004
 20
22.74576920595584
 30
0
 11
14.25673572873518
 21
22.84597420731654
 31
0
  0
LINE
  8
1
 62
7
 10
14.35694073009591
 20
23.07103832530164
 30
0
 11
14.36977936021725
 21
23.80656295234694
 31
0
  0
LINE
  8
1
 62
7
 10
13.29614698370479
 20
22.73293057583445
 30
0
 11
14.03167161075004
 21
22.74576920595584
 31
0
  0
LINE
  8
1
 62
7
 10
14.59614698370478
 20
23.80656295234694
 30
0
 11
14.82251460719232
 21
23.80656295234694
 31
0
  0
LINE
  8
1
 62
7
 10
15.89614698370479
 20
22.73293057583445
 30
0
 11
15.89614698370479
 21
22.50656295234694
 31
0
  0
LINE
  8
1
 62
7
 10
14.83535323731371
 20
23.07103832530164
 30
0
 11
14.93555823867433
 21
22.84597420731654
 31
0
  0
LINE
  8
1
 62
7
 10
14.93555823867433
 20
22.84597420731654
 30
0
 11
15.16062235665953
 21
22.74576920595584
 31
0
  0
LINE
  8
1
 62
7
 10
14.82251460719232
 20
23.80656295234694
 30
0
 11
14.83535323731371
 21
23.07103832530164
 31
0
  0
LINE
  8
1
 62
7
 10
15.16062235665953
 20
22.74576920595584
 30
0
 11
15.89614698370479
 21
22.73293057583445
 31
0
  0
ARC
  8
1
 62
7
 10
-9.662788245441325
 20
13.10656295234696
 30
0
 40
5.563333333333067
 50
316.9180481629213
 51
43.08195183707949
  0
ARC
  8
1
 62
7
 10
-72.53612157877478
 20
13.10656295234685
 30
0
 40
5.56333333333358
 50
136.918048162923
 51
223.0819518370745
  0
ARC
  8
1
 62
7
 10
-72.53612157877524
 20
22.50656295234694
 30
0
 40
5.563333333333249
 50
136.9180481629198
 51
223.0819518370785
  0
ARC
  8
1
 62
7
 10
-9.662788245441325
 20
22.50656295234694
 30
0
 40
5.563333333333009
 50
316.9180481629223
 51
43.08195183707879
  0
CIRCLE
  8
1
 62
7
 10
14.59614698370478
 20
22.50656295234694
 30
0
 40
3.754922308539177
  0
CIRCLE
  8
1
 62
7
  6
DASHED
 10
-66.09945491210829
 20
23.30656295234701
 30
0
 40
2.999999999999993
  0
CIRCLE
  8
1
 62
7
  6
DASHED
 10
-41.09945491210829
 20
23.30656295234701
 30
0
 40
3
  0
CIRCLE
  8
1
 62
7
  6
DASHED
 10
-16.09945491210829
 20
23.30656295234701
 30
0
 40
2.999999999999998
  0
CIRCLE
  8
1
 62
3
 10
-66.09945491210829
 20
23.30656295234701
 30
0
 40
2
  0
CIRCLE
  8
1
 62
7
 10
-66.09945491210829
 20
23.30656295234701
 30
0
 40
1.650000000000091
  0
CIRCLE
  8
1
 62
7
 10
-41.09945491210829
 20
23.30656295234701
 30
0
 40
1.650000000000105
  0
CIRCLE
  8
1
 62
7
 10
-16.09945491210829
 20
23.30656295234701
 30
0
 40
1.6500000000001
  0
CIRCLE
  8
1
 62
3
 10
-41.09945491210829
 20
23.30656295234701
 30
0
 40
2
  0
CIRCLE
  8
1
 62
3
 10
-16.09945491210829
 20
23.30656295234701
 30
0
 40
1.999999999999998
  0
CIRCLE
  8
1
 62
7
 10
-16.09945491210829
 20
12.30656295234701
 30
0
 40
2.999999999999998
  0
CIRCLE
  8
1
 62
7
 10
-41.09945491210829
 20
12.30656295234701
 30
0
 40
3
  0
CIRCLE
  8
1
 62
7
 10
-66.09945491210829
 20
12.30656295234701
 30
0
 40
2.999999999999993
  0
CIRCLE
  8
1
 62
7
 10
-66.09945491210829
 20
12.30656295234701
 30
0
 40
1.650000000000091
  0
CIRCLE
  8
1
 62
3
 10
-66.09945491210829
 20
12.30656295234701
 30
0
 40
2
  0
CIRCLE
  8
1
 62
7
 10
-41.09945491210829
 20
12.30656295234701
 30
0
 40
1.650000000000105
  0
CIRCLE
  8
1
 62
3
 10
-41.09945491210829
 20
12.30656295234701
 30
0
 40
2
  0
CIRCLE
  8
1
 62
7
 10
-16.09945491210829
 20
12.30656295234701
 30
0
 40
1.6500000000001
  0
CIRCLE
  8
1
 62
3
 10
-16.09945491210829
 20
12.30656295234701
 30
0
 40
1.999999999999998
  0
CIRCLE
  8
1
 62
7
 10
14.59614698370478
 20
13.10656295234696
 30
0
 40
3.754922308539174
  0
CIRCLE
  8
1
 62
7
 10
14.59614698370478
 20
22.50656295234694
 30
0
 40
3.250000000000003
  0
CIRCLE
  8
1
 62
7
 10
14.59614698370478
 20
13.10656295234696
 30
0
 40
3.250000000000121
  0
TEXT
  8
1
 62
2
 10
4.48892292828392
 20
-15.478709426444
 30
0
 40
3.5
  1
UNION TOOL CO.
 41
0.72
  7
COMPLEX
  0
TEXT
  8
1
 62
2
 10
-81.05569148185219
 20
51.028872390281
 30
0
 40
3.5
  1
MODEL : G3
 41
0.72
  7
COMPLEX
  0
ENDSEC
  0
EOF
