  0
SECTION
  2
HEADER
  9
$ACADVER
  1
AC1009
  9
$INSBASE
 10
0
 20
0
  9
$EXTMIN
 10
-338.4667393050273
 20
-52.48208800286871
  9
$EXTMAX
 10
90.36682829324379
 20
136.100443905286
  9
$LIMMIN
 10
-338.4667393050273
 20
-52.48208800286871
  9
$LIMMAX
 10
90.36682829324379
 20
136.100443905286
  9
$VIEWCTR
 10
10
 20
10
  9
$VIEWSIZE
 40
10
  9
$SNAPMODE
 70
0
  9
$SNAPUNIT
 10
1
 20
1
  9
$SNAPBASE
 10
0
 20
0
  9
$SNAPANG
 50
0
  9
$SNAPSTYLE
 70
0
  9
$SNAPISOPAIR
 70
0
  9
$GRIDMODE
 70
0
  9
$GRIDUNIT
 10
0
 20
0
  9
$ORTHOMODE
 70
0
  9
$REGENMODE
 70
1
  9
$FILLMODE
 70
1
  9
$QTEXTMODE
 70
0
  9
$DRAGMODE
 70
2
  9
$LTSCALE
 40
1
  9
$OSMODE
 70
0
  9
$ATTMODE
 70
1
  9
$TEXTSIZE
 40
3.5
  9
$TRACEWID
 40
0.5
  9
$TEXTSTYLE
  7
STANDARD
  9
$CLAYER
  8
0
  9
$CELTYPE
  6
BYLAYER
  9
$CECOLOR
 62
256
  9
$DIMSCALE
 40
1
  9
$DIMASZ
 40
0.18
  9
$DIMEXO
 40
0.0625
  9
$DIMDLI
 40
0.38
  9
$DIMRND
 40
0
  9
$DIMDLE
 40
0
  9
$DIMEXE
 40
0.18
  9
$DIMTP
 40
0
  9
$DIMTM
 40
0
  9
$DIMTXT
 40
0.18
  9
$DIMCEN
 40
0.09
  9
$DIMTSZ
 40
0
  9
$DIMTOL
 70
0
  9
$DIMLIM
 70
0
  9
$DIMTIH
 70
1
  9
$DIMTOH
 70
1
  9
$DIMSE1
 70
0
  9
$DIMSE2
 70
0
  9
$DIMTAD
 70
0
  9
$DIMZIN
 70
0
  9
$DIMBLK
  1

  9
$DIMASO
 70
1
  9
$DIMSHO
 70
1
  9
$DIMPOST
  1

  9
$DIMAPOST
  1

  9
$DIMALT
 70
0
  9
$DIMALTD
 70
2
  9
$DIMALTF
 40
25.4
  9
$DIMLFAC
 40
1
  9
$DIMTOFL
 70
0
  9
$DIMTVP
 40
0
  9
$DIMTIX
 70
0
  9
$DIMSOXD
 70
0
  9
$DIMSAH
 70
0
  9
$DIMBLK1
  1

  9
$DIMBLK2
  1

  9
$DIMSTYLE
  2
*UNNAMED
  9
$DIMCLRD
 70
0
  9
$DIMCLRE
 70
0
  9
$DIMCLRT
 70
0
  9
$DIMTFAC
 40
1
  9
$DIMGAP
 40
0.09
  9
$LUNITS
 70
2
  9
$LUPREC
 70
4
  9
$AXISMODE
 70
0
  9
$AXISUNIT
 10
0
 20
0
  9
$SKETCHINC
 40
0.1
  9
$FILLETRAD
 40
2
  9
$AUNITS
 70
0
  9
$AUPREC
 70
0
  9
$MENU
  1
ACAD
  9
$ELEVATION
 40
0
  9
$THICKNESS
 40
0
  9
$VIEWDIR
 10
0
 20
0
 30
1
  9
$LIMCHECK
 70
0
  9
$BLIPMODE
 70
1
  9
$CHAMFERA
 40
0
  9
$CHAMFERB
 40
0
  9
$FASTZOOM
 70
1
  9
$SKPOLY
 70
0
  9
$ANGBASE
 50
0
  9
$ANGDIR
 70
0
  9
$PDMODE
 70
0
  9
$PDSIZE
 40
0
  9
$PLINEWID
 40
0
  9
$COORDS
 70
2
  0
ENDSEC
  0
SECTION
  2
TABLES
  0
TABLE
  2
DIMSTYLE
 70
0
  0
ENDTAB
  0
TABLE
  2
LTYPE
 70
9
  0
LTYPE
  2
CONTINUOUS
 70
64
  3
Solid line
 72
65
 73
0
 40
0
  0
LTYPE
  2
BORDER
 70
64
  3
__ __ . __ __ .
 72
65
 73
6
 40
19.7489142972888
 49
5.642546942082515
 49
-2.821273471041257
 49
5.642546942082515
 49
-2.821273471041257
 49
0
 49
-2.821273471041257
  0
LTYPE
  2
CENTER
 70
64
  3
____ _ ____ _
 72
65
 73
4
 40
22.57018776833006
 49
14.10636735520629
 49
-2.821273471041257
 49
2.821273471041257
 49
-2.821273471041257
  0
LTYPE
  2
DASHDOT
 70
64
  3
__ . __ . __ .
 72
65
 73
4
 40
11.28509388416503
 49
5.642546942082515
 49
-2.821273471041257
 49
0
 49
-2.821273471041257
  0
LTYPE
  2
DASHED
 70
64
  3
__ __ __ __ __
 72
65
 73
2
 40
8.463820413123772
 49
5.642546942082515
 49
-2.821273471041257
  0
LTYPE
  2
DIVIDE
 70
64
  3
__ . . __ . . 
 72
65
 73
6
 40
14.10636735520629
 49
5.642546942082515
 49
-2.821273471041257
 49
0
 49
-2.821273471041257
 49
0
 49
-2.821273471041257
  0
LTYPE
  2
DOT
 70
64
  3
..............
 72
65
 73
4
 40
5.642546942082515
 49
0
 49
-2.821273471041257
 49
0
 49
-2.821273471041257
  0
LTYPE
  2
HIDDEN
 70
64
  3
_ _ _ _ _ _ _
 72
65
 73
2
 40
4.231910206561886
 49
2.821273471041257
 49
-1.410636735520629
  0
LTYPE
  2
PHANTOM
 70
64
  3
_____ _ _ _____ _ _ 
 72
65
 73
6
 40
28.21273471041257
 49
14.10636735520629
 49
-2.821273471041257
 49
2.821273471041257
 49
-2.821273471041257
 49
2.821273471041257
 49
-2.821273471041257
  0
ENDTAB
  0
TABLE
  2
LAYER
 70
3
  0
LAYER
  2
1
 70
0
 62
7
  6
CONTINUOUS
  0
LAYER
  2
0
 70
0
 62
7
  6
CONTINUOUS
  0
ENDTAB
  0
TABLE
  2
STYLE
 70
4
  0
STYLE
  2
STANDARD
 70
0
 40
0
 41
1
 50
0
 71
0
 42
3.5
  3
txt
  4

  0
STYLE
  2
SIMPLEX
 70
0
 40
0
 41
1
 50
0
 71
0
 42
3.5
  3
simplex
  4

  0
STYLE
  2
COMPLEX
 70
0
 40
0
 41
1
 50
0
 71
0
 42
3.5
  3
complex
  4

  0
STYLE
  2
ITALIC
 70
0
 40
0
 41
1
 50
0
 71
0
 42
3.5
  3
italic
  4

  0
ENDTAB
  0
TABLE
  2
VIEW
 70
0
  0
ENDTAB
  0
ENDSEC
  0
SECTION
  2
BLOCKS
  0
ENDSEC
  0
SECTION
  2
ENTITIES
  0
LINE
  8
1
 62
7
 10
-2.054046383379283
 20
63.80779866622655
 30
0
 11
0.7140664692164869
 21
66.57591151882231
 31
0
  0
LINE
  8
1
 62
7
 10
13.95373629666406
 20
58.70844877707888
 30
0
 11
16.8040376663836
 21
61.55875014679839
 31
0
  0
LINE
  8
1
 62
7
 10
12.13720679634885
 20
59.40921456856037
 30
0
 11
16.64516444704241
 21
63.91717221925392
 31
0
  0
LINE
  8
1
 62
7
 10
0.6411452989615363
 20
66.60905151651795
 30
0
 11
-2.209156070758006
 21
63.75875014679843
 31
0
  0
LINE
  8
1
 62
7
 10
0.9100213880807644
 20
66.48902372521197
 30
0
 11
-2.054046383379283
 21
63.52495595375193
 31
0
  0
LINE
  8
1
 62
7
 10
2.212419822322815
 20
65.98829986742834
 30
0
 11
-2.050510849473355
 21
61.72536919563217
 31
0
  0
LINE
  8
1
 62
7
 10
-2.050510849473355
 20
61.40010007628635
 30
0
 11
2.457674799276756
 21
65.90828572503646
 31
0
  0
LINE
  8
1
 62
7
 10
16.64516444704241
 20
63.91717221925392
 30
0
 11
13.95342675639359
 21
66.60890990990274
 31
0
  0
LINE
  8
1
 62
7
 10
16.64892797900488
 20
61.7925443398449
 30
0
 11
13.68486020754483
 21
58.82847656838484
 31
0
  0
LINE
  8
1
 62
7
 10
16.64892797900488
 20
61.50970162737028
 30
0
 11
16.64892797900488
 21
61.7925443398449
 31
0
  0
LINE
  8
1
 62
7
 10
-2.054046383379283
 20
63.52495595375193
 30
0
 11
-2.054046383379283
 21
63.80779866622655
 31
0
  0
LINE
  8
1
 62
7
 10
-2.050510849473355
 20
61.72536919563217
 30
0
 11
-2.050510849473355
 21
61.40010007628635
 31
0
  0
LINE
  8
1
 62
7
 10
16.64095195982499
 20
63.59611558712553
 30
0
 11
12.37876841412364
 21
59.33043791236126
 31
0
  0
LINE
  8
1
 62
7
 10
16.64516444704241
 20
63.91717221925392
 30
0
 11
16.64095195982499
 21
63.59611558712553
 31
0
  0
LINE
  8
1
 62
7
 10
16.64892797900488
 20
61.50970162737028
 30
0
 11
13.88081512640911
 21
58.74158877477451
 31
0
  0
LINE
  8
1
 62
7
 10
15.74736683299207
 20
62.69410548585774
 30
0
 11
16.64892797900488
 21
61.7925443398449
 31
0
  0
LINE
  8
1
 62
7
 10
-2.054046383379283
 20
63.52495595375193
 30
0
 11
-1.152485237366445
 21
62.62339480773908
 31
0
  0
LINE
  8
1
 62
7
 10
16.8035865194979
 20
63.75875014679843
 30
0
 11
16.64516444704241
 21
63.91717221925392
 31
0
  0
LINE
  8
1
 62
7
 10
-2.208704923872304
 20
61.55875014679839
 30
0
 11
0.641454839232015
 21
58.70859038369407
 31
0
  0
LINE
  8
1
 62
7
 10
68.2505174479512
 20
72.0102373279905
 30
0
 11
59.76523607371259
 21
63.52495595375193
 31
0
  0
LINE
  8
1
 62
7
 10
78.46821043609678
 20
61.7925443398449
 30
0
 11
69.98292906185819
 21
53.30726296560632
 31
0
  0
LINE
  8
1
 62
7
 10
69.98292906185819
 20
53.30726296560632
 30
0
 11
70.26577177433279
 21
53.30726296560632
 31
0
  0
LINE
  8
1
 62
7
 10
78.46821043609678
 20
61.50970162737028
 30
0
 11
78.46821043609678
 21
61.7925443398449
 31
0
  0
LINE
  8
1
 62
7
 10
67.96767473547659
 20
72.0102373279905
 30
0
 11
68.2505174479512
 21
72.0102373279905
 31
0
  0
LINE
  8
1
 62
7
 10
59.76523607371259
 20
63.52495595375193
 30
0
 11
59.76523607371259
 21
63.80779866622655
 31
0
  0
LINE
  8
1
 62
7
 10
59.76877160761859
 20
61.40010007628635
 30
0
 11
70.37514532736019
 21
72.00647379602802
 31
0
  0
LINE
  8
1
 62
7
 10
59.76877160761859
 20
61.72536919563217
 30
0
 11
59.76877160761859
 21
61.40010007628635
 31
0
  0
LINE
  8
1
 62
7
 10
70.0498762080144
 20
72.00647379602802
 30
0
 11
59.76877160761859
 21
61.72536919563217
 31
0
  0
LINE
  8
1
 62
7
 10
70.37514532736019
 20
72.00647379602802
 30
0
 11
70.3667232549047
 21
72.01489586848354
 31
0
  0
LINE
  8
1
 62
7
 10
70.37514532736019
 20
72.00647379602802
 30
0
 11
70.0498762080144
 21
72.00647379602802
 31
0
  0
LINE
  8
1
 62
7
 10
67.8583011824492
 20
53.3110264975688
 30
0
 11
78.46444690413431
 21
63.91717221925392
 31
0
  0
LINE
  8
1
 62
7
 10
67.8583011824492
 20
53.3110264975688
 30
0
 11
67.8667232549047
 21
53.30260442511329
 31
0
  0
LINE
  8
1
 62
7
 10
67.8583011824492
 20
53.3110264975688
 30
0
 11
68.1833423037385
 21
53.31079849951225
 31
0
  0
LINE
  8
1
 62
7
 10
78.46023441691689
 20
63.59611558712553
 30
0
 11
68.1833423037385
 21
53.31079849951225
 31
0
  0
LINE
  8
1
 62
7
 10
78.46444690413431
 20
63.91717221925392
 30
0
 11
69.11649768146188
 21
73.26512144192631
 31
0
  0
LINE
  8
1
 62
7
 10
78.46444690413431
 20
63.91717221925392
 30
0
 11
78.46023441691689
 21
63.59611558712553
 31
0
  0
LINE
  8
1
 62
7
 10
69.98292906185819
 20
53.30726296560632
 30
0
 11
69.08136791584539
 21
54.20882411161917
 31
0
  0
LINE
  8
1
 62
7
 10
78.46821043609678
 20
61.50970162737028
 30
0
 11
70.26577177433279
 21
53.30726296560632
 31
0
  0
LINE
  8
1
 62
7
 10
77.56664929008399
 20
62.69410548585774
 30
0
 11
78.46821043609678
 21
61.7925443398449
 31
0
  0
LINE
  8
1
 62
7
 10
59.76523607371259
 20
63.52495595375193
 30
0
 11
60.6667972197255
 21
62.62339480773908
 31
0
  0
LINE
  8
1
 62
7
 10
67.96767473547659
 20
72.0102373279905
 30
0
 11
59.76523607371259
 21
63.80779866622655
 31
0
  0
LINE
  8
1
 62
7
 10
69.15207859396399
 20
71.10867618197766
 30
0
 11
68.2505174479512
 21
72.0102373279905
 31
0
  0
LINE
  8
1
 62
7
 10
76.9167232549047
 20
75.75875014679843
 30
0
 11
76.9167232549047
 21
92.55875014679842
 31
0
  0
LINE
  8
1
 62
7
 10
87.1167232549047
 20
75.75875014679843
 30
0
 11
76.9167232549047
 21
75.75875014679843
 31
0
  0
LINE
  8
1
 62
7
 10
87.1167232549047
 20
92.55875014679842
 30
0
 11
76.9167232549047
 21
92.55875014679842
 31
0
  0
LINE
  8
1
 62
3
  6
CENTER
 10
89.15672325490469
 20
84.15875014679841
 30
0
 11
47.86661821656558
 21
84.15875014679841
 31
0
  0
LINE
  8
1
 62
7
 10
76.9167232549047
 20
79.3587501467984
 30
0
 11
51.1167232549047
 21
79.35875014679843
 31
0
  0
LINE
  8
1
 62
7
 10
76.9167232549047
 20
88.95875014679842
 30
0
 11
51.1167232549047
 21
88.95875014679842
 31
0
  0
LINE
  8
1
 62
3
 10
76.9167232549047
 20
78.15875014679841
 30
0
 11
51.1167232549047
 21
78.15875014679841
 31
0
  0
LINE
  8
1
 62
3
 10
76.9167232549047
 20
90.15875014679841
 30
0
 11
51.1167232549047
 21
90.15875014679841
 31
0
  0
LINE
  8
1
 62
7
 10
87.1167232549047
 20
96.15875014679841
 30
0
 11
87.1167232549047
 21
65.75875014679843
 31
0
  0
LINE
  8
1
 62
7
 10
85.1167232549047
 20
98.15875014679841
 30
0
 11
53.1167232549047
 21
98.15875014679841
 31
0
  0
LINE
  8
1
 62
7
 10
51.1167232549047
 20
65.75875014679843
 30
0
 11
51.1167232549047
 21
96.15875014679841
 31
0
  0
LINE
  8
1
 62
7
 10
53.1167232549047
 20
63.75875014679843
 30
0
 11
59.61012638633389
 21
63.75875014679843
 31
0
  0
LINE
  8
1
 62
7
 10
69.11649768146188
 20
73.26512144192631
 30
0
 11
59.61012638633389
 21
63.75875014679843
 31
0
  0
LINE
  8
1
 62
7
 10
78.6228689765898
 20
63.75875014679843
 30
0
 11
78.46444690413431
 21
63.91717221925392
 31
0
  0
LINE
  8
1
 62
7
 10
85.1167232549047
 20
63.75875014679843
 30
0
 11
78.6228689765898
 21
63.75875014679843
 31
0
  0
LINE
  8
1
 62
7
 10
53.1167232549047
 20
98.15875014679841
 30
0
 11
51.1167232549047
 21
96.15875014679841
 31
0
  0
LINE
  8
1
 62
7
 10
51.1167232549047
 20
65.75875014679843
 30
0
 11
53.1167232549047
 21
63.75875014679843
 31
0
  0
LINE
  8
1
 62
7
 10
87.1167232549047
 20
65.75875014679843
 30
0
 11
85.1167232549047
 21
63.75875014679843
 31
0
  0
LINE
  8
1
 62
7
 10
87.1167232549047
 20
96.15875014679841
 30
0
 11
85.1167232549047
 21
98.15875014679841
 31
0
  0
LINE
  8
1
 62
7
 10
61.31672325490469
 20
49.55875014679839
 30
0
 11
61.31672325490469
 21
32.75875014679841
 31
0
  0
LINE
  8
1
 62
7
 10
51.1167232549047
 20
49.55875014679839
 30
0
 11
61.31672325490469
 21
49.55875014679839
 31
0
  0
LINE
  8
1
 62
7
 10
51.1167232549047
 20
32.75875014679841
 30
0
 11
61.31672325490469
 21
32.75875014679841
 31
0
  0
LINE
  8
1
 62
3
  6
CENTER
 10
49.07672325490471
 20
41.15875014679841
 30
0
 11
90.36682829324379
 21
41.15875014679841
 31
0
  0
LINE
  8
1
 62
7
 10
61.31672325490469
 20
45.95875014679842
 30
0
 11
87.1167232549047
 21
45.95875014679839
 31
0
  0
LINE
  8
1
 62
7
 10
61.31672325490469
 20
36.3587501467984
 30
0
 11
87.1167232549047
 21
36.3587501467984
 31
0
  0
LINE
  8
1
 62
3
 10
61.31672325490469
 20
47.15875014679841
 30
0
 11
87.1167232549047
 21
47.15875014679841
 31
0
  0
LINE
  8
1
 62
3
 10
61.31672325490469
 20
35.15875014679841
 30
0
 11
87.1167232549047
 21
35.15875014679841
 31
0
  0
LINE
  8
1
 62
3
  6
CENTER
 10
69.1167232549047
 20
101.985060036828
 30
0
 11
69.1167232549047
 21
22.17017481680296
 31
0
  0
LINE
  8
1
 62
3
  6
CENTER
 10
88.32219279465456
 20
62.65875014679841
 30
0
 11
51.81102180556321
 21
62.65875014679841
 31
0
  0
LINE
  8
1
 62
7
 10
51.1167232549047
 20
29.15875014679841
 30
0
 11
51.1167232549047
 21
59.55875014679839
 31
0
  0
LINE
  8
1
 62
7
 10
53.1167232549047
 20
27.15875014679841
 30
0
 11
85.1167232549047
 21
27.15875014679841
 31
0
  0
LINE
  8
1
 62
7
 10
87.1167232549047
 20
59.55875014679839
 30
0
 11
87.1167232549047
 21
29.15875014679841
 31
0
  0
LINE
  8
1
 62
7
 10
85.1167232549047
 20
61.55875014679839
 30
0
 11
78.62332012347549
 21
61.55875014679839
 31
0
  0
LINE
  8
1
 62
7
 10
69.1169488283475
 20
52.05237885167049
 30
0
 11
78.62332012347549
 21
61.55875014679839
 31
0
  0
LINE
  8
1
 62
7
 10
59.6105775332196
 20
61.55875014679839
 30
0
 11
69.1169488283475
 21
52.05237885167049
 31
0
  0
LINE
  8
1
 62
7
 10
53.1167232549047
 20
61.55875014679839
 30
0
 11
59.6105775332196
 21
61.55875014679839
 31
0
  0
LINE
  8
1
 62
7
 10
85.1167232549047
 20
27.15875014679841
 30
0
 11
87.1167232549047
 21
29.15875014679841
 31
0
  0
LINE
  8
1
 62
7
 10
87.1167232549047
 20
59.55875014679839
 30
0
 11
85.1167232549047
 21
61.55875014679839
 31
0
  0
LINE
  8
1
 62
7
 10
51.1167232549047
 20
59.55875014679839
 30
0
 11
53.1167232549047
 21
61.55875014679839
 31
0
  0
LINE
  8
1
 62
7
 10
51.1167232549047
 20
29.15875014679841
 30
0
 11
53.1167232549047
 21
27.15875014679841
 31
0
  0
LINE
  8
1
 62
7
 10
6.297440797812804
 20
60.12746956947012
 30
0
 11
6.297440797812804
 21
28.1900307241267
 31
0
  0
LINE
  8
1
 62
7
 10
8.297440797812804
 20
28.21950305213977
 30
0
 11
8.297440797812804
 21
60.12746956947012
 31
0
  0
LINE
  8
1
 62
7
 10
6.297440797812804
 20
60.12746956947012
 30
0
 11
6.297440797812804
 21
28.1900307241267
 31
0
  0
LINE
  8
1
 62
7
 10
8.297440797812804
 20
65.1900307241267
 30
0
 11
8.297440797812804
 21
97.09799724145705
 31
0
  0
LINE
  8
1
 62
7
 10
6.297440797812804
 20
97.12746956947012
 30
0
 11
6.297440797812804
 21
65.1900307241267
 31
0
  0
LINE
  8
1
 62
4
  6
CENTER
 10
-338.4667393050273
 20
62.65875014679841
 30
0
 11
-39.01697214001206
 21
62.65875014679841
 31
0
  0
LINE
  8
1
 62
7
 10
-330.1117307268962
 20
65.75875014680059
 30
0
 11
-330.1117307268962
 21
96.15875014679841
 31
0
  0
LINE
  8
1
 62
7
 10
-52.11173072689598
 20
98.15875014679841
 30
0
 11
-124.2698188995571
 21
98.15875014679841
 31
0
  0
LINE
  8
1
 62
7
 10
-50.11173072689598
 20
97.15875014679841
 30
0
 11
-50.11173072689598
 21
65.15875014679841
 31
0
  0
LINE
  8
1
 62
7
 10
-52.11173072689598
 20
63.75875014680059
 30
0
 11
-130.3354670359281
 21
63.75875014680059
 31
0
  0
LINE
  8
1
 62
7
 10
-330.1117307268962
 20
29.15875014679841
 30
0
 11
-330.1117307268962
 21
59.55875014679987
 31
0
  0
LINE
  8
1
 62
7
 10
-52.11173072689598
 20
27.15875014679841
 30
0
 11
-136.7890345298581
 21
27.15875014679841
 31
0
  0
LINE
  8
1
 62
7
 10
-50.11173072689598
 20
28.15875014679841
 30
0
 11
-50.11173072689598
 21
60.15875014679841
 31
0
  0
LINE
  8
1
 62
7
 10
-52.11173072689598
 20
61.55875014679987
 30
0
 11
-130.723386393486
 21
61.55875014679987
 31
0
  0
LINE
  8
1
 62
3
  6
CENTER
 10
-276.6717307268962
 20
84.15875014679841
 30
0
 11
-303.5517307268963
 21
84.15875014679841
 31
0
  0
LINE
  8
1
 62
3
  6
CENTER
 10
-290.1117307268962
 20
97.59875014680074
 30
0
 11
-290.1117307268962
 21
70.71875014679972
 31
0
  0
LINE
  8
1
 62
3
  6
CENTER
 10
-276.6717307268962
 20
41.15875014679841
 30
0
 11
-303.5517307268963
 21
41.15875014679841
 31
0
  0
LINE
  8
1
 62
3
  6
CENTER
 10
-290.1117307268962
 20
54.59875014680074
 30
0
 11
-290.1117307268962
 21
27.71875014679972
 31
0
  0
LINE
  8
1
 62
3
  6
CENTER
 10
-190.111730726896
 20
54.59875014680074
 30
0
 11
-190.111730726896
 21
27.71875014679972
 31
0
  0
LINE
  8
1
 62
3
  6
CENTER
 10
-176.671730726896
 20
41.15875014679841
 30
0
 11
-203.5517307268963
 21
41.15875014679841
 31
0
  0
LINE
  8
1
 62
3
  6
CENTER
 10
-190.111730726896
 20
97.59875014680074
 30
0
 11
-190.111730726896
 21
70.71875014679972
 31
0
  0
LINE
  8
1
 62
3
  6
CENTER
 10
-176.671730726896
 20
84.15875014679841
 30
0
 11
-203.5517307268963
 21
84.15875014679841
 31
0
  0
LINE
  8
1
 62
3
  6
CENTER
 10
-90.11173072689599
 20
54.59875014680074
 30
0
 11
-90.11173072689599
 21
27.71875014679972
 31
0
  0
LINE
  8
1
 62
3
  6
CENTER
 10
-76.67173072689593
 20
41.15875014679841
 30
0
 11
-103.551730726896
 21
41.15875014679841
 31
0
  0
LINE
  8
1
 62
3
  6
CENTER
 10
-90.11173072689599
 20
97.59875014680074
 30
0
 11
-90.11173072689599
 21
70.71875014679972
 31
0
  0
LINE
  8
1
 62
3
  6
CENTER
 10
-76.67173072689593
 20
84.15875014679841
 30
0
 11
-103.551730726896
 21
84.15875014679841
 31
0
  0
LINE
  8
1
 62
7
 10
-50.11173072689598
 20
96.15875014679841
 30
0
 11
-52.11173072689598
 21
98.15875014679841
 31
0
  0
LINE
  8
1
 62
7
 10
-52.11173072689598
 20
63.75875014680059
 30
0
 11
-50.11173072689598
 21
65.75875014680059
 31
0
  0
LINE
  8
1
 62
7
 10
-52.11173072689598
 20
61.55875014679987
 30
0
 11
-50.11173072689598
 21
59.55875014679987
 31
0
  0
LINE
  8
1
 62
7
 10
-50.11173072689598
 20
29.15875014679841
 30
0
 11
-52.11173072689598
 21
27.15875014679841
 31
0
  0
LINE
  8
1
 62
7
 10
-328.1117307268962
 20
27.15875014679841
 30
0
 11
-330.1117307268962
 21
29.15875014679841
 31
0
  0
LINE
  8
1
 62
7
 10
-328.1117307268962
 20
61.55875014679987
 30
0
 11
-330.1117307268962
 21
59.55875014679987
 31
0
  0
LINE
  8
1
 62
7
 10
-328.1117307268962
 20
63.75875014680059
 30
0
 11
-330.1117307268962
 21
65.75875014680059
 31
0
  0
LINE
  8
1
 62
7
 10
-328.1117307268962
 20
98.15875014679841
 30
0
 11
-330.1117307268962
 21
96.15875014679841
 31
0
  0
LINE
  8
1
 62
3
  6
CENTER
 10
27.3653451015888
 20
62.65875014679841
 30
0
 11
-13.52807620870031
 21
62.65875014679841
 31
0
  0
LINE
  8
1
 62
7
 10
-10.7025592021872
 20
65.75875014680059
 30
0
 11
-10.7025592021872
 21
96.15875014679841
 31
0
  0
LINE
  8
1
 62
7
 10
23.29744079781281
 20
98.15875014679841
 30
0
 11
-8.702559202187194
 21
98.15875014679841
 31
0
  0
LINE
  8
1
 62
7
 10
25.29744079781281
 20
96.15875014679841
 30
0
 11
25.29744079781281
 21
65.75875014680059
 31
0
  0
LINE
  8
1
 62
7
 10
16.80403766638269
 20
63.75875014680059
 30
0
 11
23.29744079781281
 21
63.75875014680059
 31
0
  0
LINE
  8
1
 62
7
 10
-2.208704923872215
 20
63.75875014680059
 30
0
 11
-8.702559202187194
 21
63.75875014680059
 31
0
  0
LINE
  8
1
 62
7
 10
25.29744079781281
 20
96.15875014679841
 30
0
 11
23.29744079781281
 21
98.15875014679841
 31
0
  0
LINE
  8
1
 62
7
 10
23.29744079781281
 20
63.75875014680059
 30
0
 11
25.29744079781281
 21
65.75875014680059
 31
0
  0
LINE
  8
1
 62
7
 10
-8.702559202187194
 20
63.75875014680059
 30
0
 11
-10.7025592021872
 21
65.75875014680059
 31
0
  0
LINE
  8
1
 62
7
 10
-8.702559202187194
 20
98.15875014679841
 30
0
 11
-10.7025592021872
 21
96.15875014679841
 31
0
  0
LINE
  8
1
 62
7
 10
-10.7025592021872
 20
29.15875014679841
 30
0
 11
-8.702559202187194
 21
27.15875014679841
 31
0
  0
LINE
  8
1
 62
7
 10
-10.7025592021872
 20
59.55875014679987
 30
0
 11
-8.702559202187194
 21
61.55875014679987
 31
0
  0
LINE
  8
1
 62
7
 10
25.29744079781281
 20
59.55875014679987
 30
0
 11
23.29744079781281
 21
61.55875014679987
 31
0
  0
LINE
  8
1
 62
7
 10
23.29744079781281
 20
27.15875014679841
 30
0
 11
25.29744079781281
 21
29.15875014679841
 31
0
  0
LINE
  8
1
 62
7
 10
-8.702559202187194
 20
61.55875014679987
 30
0
 11
-2.208704923872215
 21
61.55875014679987
 31
0
  0
LINE
  8
1
 62
7
 10
23.29744079781281
 20
61.55875014679987
 30
0
 11
16.80403766638269
 21
61.55875014679987
 31
0
  0
LINE
  8
1
 62
7
 10
25.29744079781281
 20
59.55875014679987
 30
0
 11
25.29744079781281
 21
29.15875014679841
 31
0
  0
LINE
  8
1
 62
7
 10
-8.702559202187194
 20
27.15875014679841
 30
0
 11
23.29744079781281
 21
27.15875014679841
 31
0
  0
LINE
  8
1
 62
7
 10
-10.7025592021872
 20
29.15875014679841
 30
0
 11
-10.7025592021872
 21
59.55875014679987
 31
0
  0
LINE
  8
1
 62
7
 10
-323.1117307268962
 20
96.15875014679841
 30
0
 11
-129.699605920403
 21
96.15875014679841
 31
0
  0
LINE
  8
1
 62
7
 10
-323.1117307268962
 20
65.75875014680059
 30
0
 11
-135.05994613394
 21
65.75875014680059
 31
0
  0
LINE
  8
1
 62
7
 10
-323.1117307268962
 20
59.55875014679987
 30
0
 11
-136.153173414333
 21
59.55875014679987
 31
0
  0
LINE
  8
1
 62
7
 10
-323.1117307268962
 20
29.15875014679841
 30
0
 11
-141.51351362787
 21
29.15875014679841
 31
0
  0
LINE
  8
1
 62
7
 10
-323.1117307268962
 20
98.15875014679841
 30
0
 11
-323.1117307268962
 21
96.15875014679841
 31
0
  0
LINE
  8
1
 62
7
 10
-323.1117307268962
 20
63.75875014680059
 30
0
 11
-323.1117307268962
 21
65.75875014680059
 31
0
  0
LINE
  8
1
 62
7
 10
-323.1117307268962
 20
61.55875014679987
 30
0
 11
-323.1117307268962
 21
59.55875014679987
 31
0
  0
LINE
  8
1
 62
7
 10
-323.1117307268962
 20
27.15875014679841
 30
0
 11
-323.1117307268962
 21
29.15875014679841
 31
0
  0
LINE
  8
1
 62
7
 10
-57.11173072689598
 20
96.15875014679841
 30
0
 11
-57.11173072689598
 21
98.15875014679841
 31
0
  0
LINE
  8
1
 62
7
 10
-57.11173072689598
 20
65.75875014680059
 30
0
 11
-57.11173072689598
 21
63.75875014680059
 31
0
  0
LINE
  8
1
 62
7
 10
-57.11173072689598
 20
59.55875014679987
 30
0
 11
-57.11173072689598
 21
61.55875014679987
 31
0
  0
LINE
  8
1
 62
7
 10
-57.11173072689598
 20
29.15875014679841
 30
0
 11
-57.11173072689598
 21
27.15875014679841
 31
0
  0
LINE
  8
1
 62
3
  6
DIVIDE
 10
-122.7175979541009
 20
106.9618325747906
 30
0
 11
-137.9889483586951
 21
20.35370066421092
 31
0
  0
LINE
  8
1
 62
3
  6
DIVIDE
 10
-127.832125564348
 20
106.7497575385896
 30
0
 11
-143.162116006034
 21
19.80906145173867
 31
0
  0
LINE
  8
1
 62
7
 10
-129.346951958986
 20
98.15875014679841
 30
0
 11
-328.1117307268962
 21
98.15875014679841
 31
0
  0
LINE
  8
1
 62
7
 10
-124.6224728609741
 20
96.15875014679841
 30
0
 11
-57.11173072689598
 21
96.15875014679841
 31
0
  0
LINE
  8
1
 62
7
 10
-141.866167589287
 20
27.15875014679841
 30
0
 11
-328.1117307268962
 21
27.15875014679841
 31
0
  0
LINE
  8
1
 62
7
 10
-136.4363805684411
 20
29.15875014679841
 30
0
 11
-57.11173072689598
 21
29.15875014679841
 31
0
  0
LINE
  8
1
 62
7
 10
-131.0760403549029
 20
59.55875014679987
 30
0
 11
-57.11173072689598
 21
59.55875014679987
 31
0
  0
LINE
  8
1
 62
7
 10
-135.800519452916
 20
61.55875014679987
 30
0
 11
-328.1117307268962
 21
61.55875014679987
 31
0
  0
LINE
  8
1
 62
7
 10
-135.412600095357
 20
63.75875014680059
 30
0
 11
-328.1117307268962
 21
63.75875014680059
 31
0
  0
LINE
  8
1
 62
7
 10
-129.9828130745109
 20
65.75875014680059
 30
0
 11
-57.11173072689598
 21
65.75875014680059
 31
0
  0
LINE
  8
1
 62
7
 10
-46.61173072689621
 20
97.15875014679841
 30
0
 11
-46.61173072689598
 21
65.15875014679841
 31
0
  0
LINE
  8
1
 62
7
 10
-46.61173072689598
 20
65.15875014679841
 30
0
 11
-45.11173072689689
 21
66.65875014679841
 31
0
  0
LINE
  8
1
 62
7
 10
-45.11173072689576
 20
95.65875014679841
 30
0
 11
-46.61173072689621
 21
97.15875014679841
 31
0
  0
LINE
  8
1
 62
7
 10
-50.11173072689598
 20
65.15875014679841
 30
0
 11
-46.61173072689598
 21
65.15875014679841
 31
0
  0
LINE
  8
1
 62
7
 10
-45.11173072689576
 20
95.65875014679841
 30
0
 11
-45.11173072689689
 21
66.65875014679841
 31
0
  0
LINE
  8
1
 62
7
 10
-50.11173072689598
 20
97.15875014679841
 30
0
 11
-46.61173072689621
 21
97.15875014679841
 31
0
  0
LINE
  8
1
 62
7
 10
-46.6117307268953
 20
60.15875014679841
 30
0
 11
-46.61173072689621
 21
28.15875014679841
 31
0
  0
LINE
  8
1
 62
7
 10
-45.11173072689712
 20
58.65875014679841
 30
0
 11
-45.11173072689553
 21
29.65875014679841
 31
0
  0
LINE
  8
1
 62
7
 10
-45.11173072689712
 20
58.65875014679841
 30
0
 11
-46.6117307268953
 21
60.15875014679841
 31
0
  0
LINE
  8
1
 62
7
 10
-46.61173072689621
 20
28.15875014679841
 30
0
 11
-45.11173072689553
 21
29.65875014679841
 31
0
  0
LINE
  8
1
 62
7
 10
-46.6117307268953
 20
60.15875014679841
 30
0
 11
-50.11173072689598
 21
60.15875014679841
 31
0
  0
LINE
  8
1
 62
7
 10
-46.61173072689621
 20
28.15875014679841
 30
0
 11
-50.11173072689598
 21
28.15875014679841
 31
0
  0
LINE
  8
1
 62
7
 10
-45.11173072689576
 20
95.65875014679841
 30
0
 11
-46.61173072689621
 21
97.15875014679841
 31
0
  0
LINE
  8
1
 62
7
 10
-45.11173072689576
 20
95.65875014679841
 30
0
 11
-46.61173072689621
 21
97.15875014679841
 31
0
  0
LINE
  8
1
 62
7
 10
-46.61173072689621
 20
28.15875014679841
 30
0
 11
-45.11173072689553
 21
29.65875014679841
 31
0
  0
LINE
  8
1
 62
7
 10
-330.1117307268962
 20
65.75875014680059
 30
0
 11
-330.1117307268962
 21
96.15875014679841
 31
0
  0
LINE
  8
1
 62
7
 10
-330.1117307268962
 20
29.15875014679841
 30
0
 11
-330.1117307268962
 21
59.55875014679987
 31
0
  0
LINE
  8
1
 62
7
 10
-333.6117307268961
 20
97.15875014679841
 30
0
 11
-333.6117307268966
 21
65.15875014679841
 31
0
  0
LINE
  8
1
 62
7
 10
-335.1117307268947
 20
66.65875014679841
 30
0
 11
-333.6117307268966
 21
65.15875014679841
 31
0
  0
LINE
  8
1
 62
7
 10
-333.6117307268961
 20
97.15875014679841
 30
0
 11
-335.1117307268969
 21
95.65875014679841
 31
0
  0
LINE
  8
1
 62
7
 10
-333.6117307268966
 20
65.15875014679841
 30
0
 11
-330.1117307268963
 21
65.15875014679841
 31
0
  0
LINE
  8
1
 62
7
 10
-335.1117307268969
 20
95.65875014679841
 30
0
 11
-335.1117307268947
 21
66.65875014679841
 31
0
  0
LINE
  8
1
 62
7
 10
-333.6117307268961
 20
97.15875014679841
 30
0
 11
-330.1117307268963
 21
97.15875014679841
 31
0
  0
LINE
  8
1
 62
7
 10
-330.1117307268963
 20
97.15875014679841
 30
0
 11
-330.1117307268963
 21
93.85875014679914
 31
0
  0
LINE
  8
1
 62
7
 10
-330.1117307268963
 20
65.15875014679841
 30
0
 11
-330.1117307268963
 21
91.35875014679914
 31
0
  0
LINE
  8
1
 62
7
 10
-330.1117307268963
 20
91.35875014679914
 30
0
 11
-330.1117307268963
 21
93.85875014679914
 31
0
  0
LINE
  8
1
 62
7
 10
-330.1117307268963
 20
29.15875014680933
 30
0
 11
-330.1117307268962
 21
59.55875014679987
 31
0
  0
LINE
  8
1
 62
7
 10
-333.6117307268968
 20
60.15875014679841
 30
0
 11
-333.6117307268959
 21
28.15875014679841
 31
0
  0
LINE
  8
1
 62
7
 10
-335.111730726895
 20
58.65875014679841
 30
0
 11
-335.1117307268971
 21
29.65875014679841
 31
0
  0
LINE
  8
1
 62
7
 10
-333.6117307268968
 20
60.15875014679841
 30
0
 11
-335.111730726895
 21
58.65875014679841
 31
0
  0
LINE
  8
1
 62
7
 10
-335.1117307268971
 20
29.65875014679841
 30
0
 11
-333.6117307268959
 21
28.15875014679841
 31
0
  0
LINE
  8
1
 62
7
 10
-330.1117307268963
 20
60.15875014679841
 30
0
 11
-333.6117307268968
 21
60.15875014679841
 31
0
  0
LINE
  8
1
 62
7
 10
-330.1117307268963
 20
28.15875014679841
 30
0
 11
-333.6117307268959
 21
28.15875014679841
 31
0
  0
LINE
  8
1
 62
7
 10
-330.1117307268963
 20
31.4587501468086
 30
0
 11
-330.1117307268963
 21
28.15875014679841
 31
0
  0
LINE
  8
1
 62
7
 10
-330.1117307268963
 20
33.9587501468086
 30
0
 11
-330.1117307268963
 21
60.15875014679841
 31
0
  0
LINE
  8
1
 62
7
 10
-330.1117307268963
 20
31.4587501468086
 30
0
 11
-330.1117307268963
 21
33.9587501468086
 31
0
  0
LINE
  8
1
 62
7
 10
-333.6117307268961
 20
97.15875014679841
 30
0
 11
-335.1117307268969
 21
95.65875014679841
 31
0
  0
LINE
  8
1
 62
7
 10
-333.6117307268961
 20
97.15875014679841
 30
0
 11
-335.1117307268969
 21
95.65875014679841
 31
0
  0
LINE
  8
1
 62
7
 10
-335.1117307268971
 20
29.65875014679841
 30
0
 11
-333.6117307268959
 21
28.15875014679841
 31
0
  0
ARC
  8
1
 62
7
 10
7.297440797812804
 20
44.15875014679841
 30
0
 40
16.0000000000004
 50
93.58332169847188
 51
266.4166783015281
  0
ARC
  8
1
 62
7
 10
7.297440797812804
 20
44.15875014679841
 30
0
 40
14.50000000000006
 50
93.95457212209082
 51
266.0454278779092
  0
ARC
  8
1
 62
7
 10
7.297440797812804
 20
44.15875014679841
 30
0
 40
14.50000000000006
 50
273.9545721220908
 51
86.04542787790919
  0
ARC
  8
1
 62
7
 10
7.297440797812804
 20
81.15875014679841
 30
0
 40
14.50000000000006
 50
93.95457212209082
 51
266.0454278779092
  0
ARC
  8
1
 62
7
 10
7.297440797812804
 20
81.15875014679841
 30
0
 40
14.50000000000006
 50
273.9545721220908
 51
86.04542787790919
  0
ARC
  8
1
 62
7
 10
-286.1117307268962
 20
80.95875014680132
 30
0
 40
40.00049999687393
 50
157.6666115622405
 51
202.3333884377643
  0
ARC
  8
1
 62
7
 10
-286.1117307268962
 20
44.35875014679914
 30
0
 40
40.00049999687532
 50
157.6666115622357
 51
202.3333884377643
  0
ARC
  8
1
 62
7
 10
-94.11173072689599
 20
80.95875014680132
 30
0
 40
40.00049999687532
 50
337.6666115622357
 51
22.33338843775949
  0
ARC
  8
1
 62
7
 10
-94.11173072689599
 20
44.35875014679914
 30
0
 40
40.00049999687532
 50
337.6666115622357
 51
22.33338843776432
  0
CIRCLE
  8
1
 62
7
 10
7.297440797812804
 20
81.15875014679841
 30
0
 40
16.0000000000004
  0
CIRCLE
  8
1
 62
7
 10
7.297440797812804
 20
44.15875014679841
 30
0
 40
16.0000000000004
  0
CIRCLE
  8
1
 62
7
 10
-290.1117307268962
 20
84.15875014679841
 30
0
 40
4.800000000000011
  0
CIRCLE
  8
1
 62
3
 10
-290.1117307268962
 20
84.15875014679841
 30
0
 40
6
  0
CIRCLE
  8
1
 62
7
 10
-290.1117307268962
 20
41.15875014679841
 30
0
 40
4.800000000000011
  0
CIRCLE
  8
1
 62
3
 10
-290.1117307268962
 20
41.15875014679841
 30
0
 40
6
  0
CIRCLE
  8
1
 62
7
  6
DASHED
 10
-290.1117307268962
 20
84.15875014679841
 30
0
 40
8.399999999999977
  0
CIRCLE
  8
1
 62
7
 10
-290.1117307268962
 20
41.15875014679841
 30
0
 40
8.399999999999977
  0
CIRCLE
  8
1
 62
7
 10
-190.111730726896
 20
41.15875014679841
 30
0
 40
8.399999999999977
  0
CIRCLE
  8
1
 62
7
  6
DASHED
 10
-190.111730726896
 20
84.15875014679841
 30
0
 40
8.399999999999977
  0
CIRCLE
  8
1
 62
3
 10
-190.111730726896
 20
41.15875014679841
 30
0
 40
6
  0
CIRCLE
  8
1
 62
7
 10
-190.111730726896
 20
41.15875014679841
 30
0
 40
4.800000000000097
  0
CIRCLE
  8
1
 62
3
 10
-190.111730726896
 20
84.15875014679841
 30
0
 40
6
  0
CIRCLE
  8
1
 62
7
 10
-190.111730726896
 20
84.15875014679841
 30
0
 40
4.800000000000097
  0
CIRCLE
  8
1
 62
7
 10
-90.11173072689599
 20
41.15875014679841
 30
0
 40
8.400000000000091
  0
CIRCLE
  8
1
 62
7
  6
DASHED
 10
-90.11173072689599
 20
84.15875014679841
 30
0
 40
8.400000000000091
  0
CIRCLE
  8
1
 62
3
 10
-90.11173072689599
 20
41.15875014679841
 30
0
 40
6
  0
CIRCLE
  8
1
 62
7
 10
-90.11173072689599
 20
41.15875014679841
 30
0
 40
4.799999999999955
  0
CIRCLE
  8
1
 62
3
 10
-90.11173072689599
 20
84.15875014679841
 30
0
 40
6
  0
CIRCLE
  8
1
 62
7
 10
-90.11173072689599
 20
84.15875014679841
 30
0
 40
4.799999999999955
  0
TEXT
  8
1
 62
2
 10
-328.424917877008
 20
130.100443905286
 30
0
 40
6
  1
MODEL : G15
 41
0.7200000000000002
  7
COMPLEX
  0
TEXT
  8
1
 62
2
 10
17.09215694131146
 20
-52.48208800286871
 30
0
 40
6
  1
UNION TOOL CO.
 41
0.7200000000000002
  7
COMPLEX
  0
ENDSEC
  0
EOF
