  0
SECTION
  2
HEADER
  9
$ACADVER
  1
AC1009
  9
$INSBASE
 10
0
 20
0
  9
$EXTMIN
 10
17.4548086032541
 20
-49.14857794791629
  9
$EXTMAX
 10
513
 20
92.22950811948208
  9
$LIMMIN
 10
17.4548086032541
 20
-49.14857794791629
  9
$LIMMAX
 10
513
 20
92.22950811948208
  9
$VIEWCTR
 10
10
 20
10
  9
$VIEWSIZE
 40
10
  9
$SNAPMODE
 70
0
  9
$SNAPUNIT
 10
1
 20
1
  9
$SNAPBASE
 10
0
 20
0
  9
$SNAPANG
 50
0
  9
$SNAPSTYLE
 70
0
  9
$SNAPISOPAIR
 70
0
  9
$GRIDMODE
 70
0
  9
$GRIDUNIT
 10
0
 20
0
  9
$ORTHOMODE
 70
0
  9
$REGENMODE
 70
1
  9
$FILLMODE
 70
1
  9
$QTEXTMODE
 70
0
  9
$DRAGMODE
 70
2
  9
$LTSCALE
 40
1
  9
$OSMODE
 70
0
  9
$ATTMODE
 70
1
  9
$TEXTSIZE
 40
3.5
  9
$TRACEWID
 40
0.5
  9
$TEXTSTYLE
  7
STANDARD
  9
$CLAYER
  8
0
  9
$CELTYPE
  6
BYLAYER
  9
$CECOLOR
 62
256
  9
$DIMSCALE
 40
1
  9
$DIMASZ
 40
0.18
  9
$DIMEXO
 40
0.0625
  9
$DIMDLI
 40
0.38
  9
$DIMRND
 40
0
  9
$DIMDLE
 40
0
  9
$DIMEXE
 40
0.18
  9
$DIMTP
 40
0
  9
$DIMTM
 40
0
  9
$DIMTXT
 40
0.18
  9
$DIMCEN
 40
0.09
  9
$DIMTSZ
 40
0
  9
$DIMTOL
 70
0
  9
$DIMLIM
 70
0
  9
$DIMTIH
 70
1
  9
$DIMTOH
 70
1
  9
$DIMSE1
 70
0
  9
$DIMSE2
 70
0
  9
$DIMTAD
 70
0
  9
$DIMZIN
 70
0
  9
$DIMBLK
  1

  9
$DIMASO
 70
1
  9
$DIMSHO
 70
1
  9
$DIMPOST
  1

  9
$DIMAPOST
  1

  9
$DIMALT
 70
0
  9
$DIMALTD
 70
2
  9
$DIMALTF
 40
25.4
  9
$DIMLFAC
 40
1
  9
$DIMTOFL
 70
0
  9
$DIMTVP
 40
0
  9
$DIMTIX
 70
0
  9
$DIMSOXD
 70
0
  9
$DIMSAH
 70
0
  9
$DIMBLK1
  1

  9
$DIMBLK2
  1

  9
$DIMSTYLE
  2
*UNNAMED
  9
$DIMCLRD
 70
0
  9
$DIMCLRE
 70
0
  9
$DIMCLRT
 70
0
  9
$DIMTFAC
 40
1
  9
$DIMGAP
 40
0.09
  9
$LUNITS
 70
2
  9
$LUPREC
 70
4
  9
$AXISMODE
 70
0
  9
$AXISUNIT
 10
0
 20
0
  9
$SKETCHINC
 40
0.1
  9
$FILLETRAD
 40
2
  9
$AUNITS
 70
0
  9
$AUPREC
 70
0
  9
$MENU
  1
ACAD
  9
$ELEVATION
 40
0
  9
$THICKNESS
 40
0
  9
$VIEWDIR
 10
0
 20
0
 30
1
  9
$LIMCHECK
 70
0
  9
$BLIPMODE
 70
1
  9
$CHAMFERA
 40
0
  9
$CHAMFERB
 40
0
  9
$FASTZOOM
 70
1
  9
$SKPOLY
 70
0
  9
$ANGBASE
 50
0
  9
$ANGDIR
 70
0
  9
$PDMODE
 70
0
  9
$PDSIZE
 40
0
  9
$PLINEWID
 40
0
  9
$COORDS
 70
2
  0
ENDSEC
  0
SECTION
  2
TABLES
  0
TABLE
  2
DIMSTYLE
 70
0
  0
ENDTAB
  0
TABLE
  2
LTYPE
 70
9
  0
LTYPE
  2
CONTINUOUS
 70
64
  3
Solid line
 72
65
 73
0
 40
0
  0
LTYPE
  2
BORDER
 70
64
  3
__ __ . __ __ .
 72
65
 73
6
 40
22.8211601301133
 49
6.520331465746657
 49
-3.260165732873328
 49
6.520331465746657
 49
-3.260165732873328
 49
0
 49
-3.260165732873328
  0
LTYPE
  2
CENTER
 70
64
  3
____ _ ____ _
 72
65
 73
4
 40
26.08132586298663
 49
16.30082866436664
 49
-3.260165732873328
 49
3.260165732873328
 49
-3.260165732873328
  0
LTYPE
  2
DASHDOT
 70
64
  3
__ . __ . __ .
 72
65
 73
4
 40
13.04066293149331
 49
6.520331465746657
 49
-3.260165732873328
 49
0
 49
-3.260165732873328
  0
LTYPE
  2
DASHED
 70
64
  3
__ __ __ __ __
 72
65
 73
2
 40
9.780497198619985
 49
6.520331465746657
 49
-3.260165732873328
  0
LTYPE
  2
DIVIDE
 70
64
  3
__ . . __ . . 
 72
65
 73
6
 40
16.30082866436664
 49
6.520331465746657
 49
-3.260165732873328
 49
0
 49
-3.260165732873328
 49
0
 49
-3.260165732873328
  0
LTYPE
  2
DOT
 70
64
  3
..............
 72
65
 73
4
 40
6.520331465746657
 49
0
 49
-3.260165732873328
 49
0
 49
-3.260165732873328
  0
LTYPE
  2
HIDDEN
 70
64
  3
_ _ _ _ _ _ _
 72
65
 73
2
 40
4.890248599309992
 49
3.260165732873328
 49
-1.630082866436664
  0
LTYPE
  2
PHANTOM
 70
64
  3
_____ _ _ _____ _ _ 
 72
65
 73
6
 40
32.60165732873328
 49
16.30082866436664
 49
-3.260165732873328
 49
3.260165732873328
 49
-3.260165732873328
 49
3.260165732873328
 49
-3.260165732873328
  0
ENDTAB
  0
TABLE
  2
LAYER
 70
3
  0
LAYER
  2
1
 70
0
 62
7
  6
CONTINUOUS
  0
LAYER
  2
0
 70
0
 62
7
  6
CONTINUOUS
  0
ENDTAB
  0
TABLE
  2
STYLE
 70
4
  0
STYLE
  2
STANDARD
 70
0
 40
0
 41
1
 50
0
 71
0
 42
3.5
  3
txt
  4

  0
STYLE
  2
SIMPLEX
 70
0
 40
0
 41
1
 50
0
 71
0
 42
3.5
  3
simplex
  4

  0
STYLE
  2
COMPLEX
 70
0
 40
0
 41
1
 50
0
 71
0
 42
3.5
  3
complex
  4

  0
STYLE
  2
ITALIC
 70
0
 40
0
 41
1
 50
0
 71
0
 42
3.5
  3
italic
  4

  0
ENDTAB
  0
TABLE
  2
VIEW
 70
0
  0
ENDTAB
  0
ENDSEC
  0
SECTION
  2
BLOCKS
  0
ENDSEC
  0
SECTION
  2
ENTITIES
  0
LINE
  8
1
 62
7
 10
148.494857322923
 20
52.10309740623461
 30
0
 11
148.494857322923
 21
26.98321214334311
 31
0
  0
LINE
  8
1
 62
7
 10
148.494857322923
 20
52.10309740623461
 30
0
 11
418.4948573229231
 21
52.10309740623461
 31
0
  0
LINE
  8
1
 62
3
  6
CENTER
 10
343.4948573229231
 20
44.1260222645639
 30
0
 11
343.4948573229231
 21
32.12419240140626
 31
0
  0
LINE
  8
1
 62
3
  6
CENTER
 10
337.3983251506556
 20
38.1030974062346
 30
0
 11
349.6792673362123
 21
38.1030974062346
 31
0
  0
LINE
  8
1
 62
3
  6
CENTER
 10
283.4948573229231
 20
43.73526501320528
 30
0
 11
283.4948573229231
 21
32.40330472380528
 31
0
  0
LINE
  8
1
 62
3
  6
CENTER
 10
277.6094911953077
 20
38.1030974062346
 30
0
 11
289.4996761295058
 21
38.1030974062346
 31
0
  0
LINE
  8
1
 62
3
  6
CENTER
 10
253.494857322923
 20
43.56779761976587
 30
0
 11
253.494857322923
 21
32.06836993692646
 31
0
  0
LINE
  8
1
 62
3
  6
CENTER
 10
248.0235850210122
 20
38.1030974062346
 30
0
 11
259.411367774892
 21
38.1030974062346
 31
0
  0
LINE
  8
1
 62
3
  6
CENTER
 10
217.7678092729591
 20
38.1030974062346
 30
0
 11
230.4395087098743
 21
38.1030974062346
 31
0
  0
LINE
  8
1
 62
3
  6
CENTER
 10
223.494857322923
 20
44.29348965800331
 30
0
 11
223.494857322923
 21
32.18001486588606
 31
0
  0
LINE
  8
1
 62
7
 10
113
 20
26.9832121433431
 30
0
 11
433.8185918299939
 21
26.9832121433431
 31
0
  0
LINE
  8
1
 62
7
 10
113
 20
26.9832121433431
 30
0
 11
113
 21
-0.08692991525919958
 31
0
  0
LINE
  8
1
 62
7
 10
513
 20
-0.08692991525915272
 30
0
 11
513
 21
26.9832121433431
 31
0
  0
LINE
  8
1
 62
7
 10
113
 20
-0.08692991525919958
 30
0
 11
429.0453954134513
 21
-0.08692991525916256
 31
0
  0
LINE
  8
1
 62
3
  6
CENTER
 10
452.9896081771587
 20
9.913070084740802
 30
0
 11
473.5073209439469
 21
9.913070084740802
 31
0
  0
LINE
  8
1
 62
3
  6
CENTER
 10
463
 20
18.76794139226304
 30
0
 11
463
 21
0.9264520298384689
 31
0
  0
LINE
  8
1
 62
3
  6
CENTER
 10
374.4652430230809
 20
9.913070084740802
 30
0
 11
350.5792667768589
 21
9.913070084740802
 31
0
  0
LINE
  8
1
 62
3
  6
CENTER
 10
363
 20
20.29830271990917
 30
0
 11
363
 21
-3.989118505240899
 31
0
  0
LINE
  8
1
 62
7
 10
394.4948573229231
 20
27.90000000000001
 30
0
 11
394.4948573229231
 21
52.10309740623461
 31
0
  0
LINE
  8
1
 62
7
 10
394.4948573229231
 20
47.50066839589931
 30
0
 11
412.4948573229229
 21
47.50066839589931
 31
0
  0
LINE
  8
1
 62
7
 10
412.4948573229229
 20
52.10309740623461
 30
0
 11
412.4948573229231
 21
27.90000000000001
 31
0
  0
LINE
  8
1
 62
7
 10
418.4948573229231
 20
26.98321214334311
 30
0
 11
418.4948573229231
 21
52.10309740623461
 31
0
  0
LINE
  8
1
 62
7
 10
154.4948573229231
 20
27.90000000000001
 30
0
 11
154.494857322923
 21
52.10309740623461
 31
0
  0
LINE
  8
1
 62
7
 10
154.4948573229231
 20
47.5006683958993
 30
0
 11
172.494857322923
 21
47.50066839589931
 31
0
  0
LINE
  8
1
 62
7
 10
148.4948573229231
 20
27.90000000000001
 30
0
 11
418.4948573229231
 21
27.90000000000001
 31
0
  0
LINE
  8
1
 62
7
 10
172.494857322923
 20
52.10309740623461
 30
0
 11
172.494857322923
 21
26.9832121433431
 31
0
  0
LINE
  8
1
 62
3
  6
CENTER
 10
152.2
 20
9.913070084740802
 30
0
 11
173.8
 21
9.913070084740802
 31
0
  0
LINE
  8
1
 62
3
  6
CENTER
 10
163
 20
-0.8869299152591985
 30
0
 11
163
 21
20.7130700847408
 31
0
  0
LINE
  8
1
 62
3
  6
CENTER
 10
252.2
 20
9.913070084740802
 30
0
 11
273.8
 21
9.913070084740802
 31
0
  0
LINE
  8
1
 62
3
  6
CENTER
 10
263
 20
-0.8869299152591985
 30
0
 11
263
 21
20.7130700847408
 31
0
  0
LINE
  8
1
 62
3
  6
CENTER
 10
313.4948573229231
 20
43.73526501320528
 30
0
 11
313.4948573229231
 21
32.40330472380528
 31
0
  0
LINE
  8
1
 62
3
  6
CENTER
 10
307.6094911953077
 20
38.1030974062346
 30
0
 11
319.4996761295058
 21
38.1030974062346
 31
0
  0
LINE
  8
1
 62
3
  6
CENTER
 10
373.4948573229231
 20
44.1260222645639
 30
0
 11
373.4948573229231
 21
32.12419240140626
 31
0
  0
LINE
  8
1
 62
3
  6
CENTER
 10
367.3983251506556
 20
38.1030974062346
 30
0
 11
379.6792673362123
 21
38.1030974062346
 31
0
  0
LINE
  8
1
 62
3
  6
CENTER
 10
187.7678092729591
 20
38.1030974062346
 30
0
 11
200.4395087098743
 21
38.1030974062346
 31
0
  0
LINE
  8
1
 62
3
  6
CENTER
 10
193.494857322923
 20
44.29348965800331
 30
0
 11
193.494857322923
 21
32.18001486588606
 31
0
  0
LINE
  8
1
 62
7
 10
24.45244511947701
 20
27.81307008474089
 30
0
 11
24.7484299930842
 21
28.10905495834805
 31
0
  0
LINE
  8
1
 62
7
 10
22.97467431752021
 20
27.81307008474089
 30
0
 11
24.45244511947701
 21
27.81307008474089
 31
0
  0
LINE
  8
1
 62
7
 10
51.4003123162282
 20
27.81307008474089
 30
0
 11
52.8781377231762
 21
27.81307008474089
 31
0
  0
LINE
  8
1
 62
7
 10
42.5543787178527
 20
27.81307008474089
 30
0
 11
42.85036359145971
 21
28.10905495834793
 31
0
  0
LINE
  8
1
 62
7
 10
44.9780383962496
 20
51.9130700847408
 30
0
 11
46.76524009962141
 21
50.12586506488508
 31
0
  0
LINE
  8
1
 62
7
 10
30.87477558981321
 20
51.9130700847408
 30
0
 11
44.9780383962496
 21
51.9130700847408
 31
0
  0
LINE
  8
1
 62
7
 10
29.08754395302061
 20
50.12583844794829
 30
0
 11
30.87477558981321
 21
51.9130700847408
 31
0
  0
LINE
  8
1
 62
7
 10
23.71353241600301
 20
44.75182691093067
 30
0
 11
24.07996710394571
 21
44.38539222298794
 31
0
  0
LINE
  8
1
 62
7
 10
22.97467431752021
 20
27.81307008474089
 30
0
 11
21.92637871785263
 21
28.86136762971562
 31
0
  0
LINE
  8
1
 62
7
 10
52.8781377231762
 20
27.81307008474089
 30
0
 11
53.9263787178526
 21
28.86131107941736
 31
0
  0
LINE
  8
1
 62
7
 10
21.92637871785263
 20
42.96467321278003
 30
0
 11
23.71353241600301
 21
44.75182691093067
 31
0
  0
LINE
  8
1
 62
7
 10
21.92637871785263
 20
42.96467321278003
 30
0
 11
21.92637871785263
 21
28.86136762971562
 31
0
  0
LINE
  8
1
 62
7
 10
33.2983787178526
 20
27.81307008474089
 30
0
 11
42.5543787178527
 21
27.81307008474089
 31
0
  0
LINE
  8
1
 62
3
  6
CENTER
 10
57.12637871785262
 20
9.9130700847408
 30
0
 11
18.72637871785264
 21
9.9130700847408
 31
0
  0
LINE
  8
1
 62
7
 10
52.9263787178526
 20
-0.08692991525919958
 30
0
 11
53.9263787178526
 21
0.9130700847408004
 31
0
  0
LINE
  8
1
 62
7
 10
21.92637871785263
 20
0.9130700847408004
 30
0
 11
22.9263787178526
 21
-0.08692991525919958
 31
0
  0
LINE
  8
1
 62
7
 10
53.9263787178526
 20
25.9130700847408
 30
0
 11
52.9263787178526
 21
26.9130700847408
 31
0
  0
LINE
  8
1
 62
7
 10
21.92637871785263
 20
25.9130700847408
 30
0
 11
22.9263787178526
 21
26.9130700847408
 31
0
  0
LINE
  8
1
 62
7
 10
22.9263787178526
 20
-0.08692991525919958
 30
0
 11
52.9263787178526
 21
-0.08692991525919958
 31
0
  0
LINE
  8
1
 62
7
 10
50.07323296734511
 20
26.9130700847408
 30
0
 11
52.9263787178526
 21
26.9130700847408
 31
0
  0
LINE
  8
1
 62
7
 10
45.74637871785259
 20
22.58621583524859
 30
0
 11
50.07323296734511
 21
26.9130700847408
 31
0
  0
LINE
  8
1
 62
7
 10
41.41952446836021
 20
26.9130700847408
 30
0
 11
45.74637871785259
 21
22.58621583524859
 31
0
  0
LINE
  8
1
 62
7
 10
34.373232967345
 20
26.9130700847408
 30
0
 11
41.41952446836021
 21
26.9130700847408
 31
0
  0
LINE
  8
1
 62
7
 10
30.04637871785248
 20
22.58621583524857
 30
0
 11
34.373232967345
 21
26.9130700847408
 31
0
  0
LINE
  8
1
 62
7
 10
25.71952446836021
 20
26.9130700847408
 30
0
 11
22.9263787178526
 21
26.9130700847408
 31
0
  0
LINE
  8
1
 62
7
 10
53.9263787178526
 20
25.9130700847408
 30
0
 11
53.9263787178526
 21
0.9130700847408004
 31
0
  0
LINE
  8
1
 62
7
 10
21.92637871785263
 20
25.9130700847408
 30
0
 11
21.92637871785263
 21
0.9130700847408004
 31
0
  0
LINE
  8
1
 62
7
 10
25.71952446836021
 20
26.9130700847408
 30
0
 11
30.04637871785248
 21
22.58621583524857
 31
0
  0
LINE
  8
1
 62
7
 10
53.9263787178526
 20
42.96471315783349
 30
0
 11
53.9263787178526
 21
28.86131107941736
 31
0
  0
LINE
  8
1
 62
7
 10
52.13924665040642
 20
44.75184854163461
 30
0
 11
53.9263787178526
 21
42.96471315783349
 31
0
  0
LINE
  8
1
 62
7
 10
46.7652134826846
 20
50.12583844794829
 30
0
 11
46.3987787947419
 21
49.75940376000556
 31
0
  0
LINE
  8
1
 62
7
 10
53.41201722583801
 20
30.30108598002624
 30
0
 11
53.41201722583801
 21
42.74616532890951
 31
0
  0
LINE
  8
1
 62
7
 10
44.7853144953621
 20
51.37286805938532
 30
0
 11
31.06744294034311
 21
51.37286805938543
 31
0
  0
LINE
  8
1
 62
7
 10
31.06744294034311
 20
51.37286805938543
 30
0
 11
22.44074020986722
 21
42.74616532890951
 31
0
  0
LINE
  8
1
 62
7
 10
22.44074020986722
 20
42.74616532890951
 30
0
 11
22.44074020986724
 21
30.30108598002635
 31
0
  0
LINE
  8
1
 62
7
 10
24.6327712315455
 20
28.10905495834805
 30
0
 11
22.44074020986724
 21
30.30108598002635
 31
0
  0
LINE
  8
1
 62
7
 10
31.06744294034311
 20
51.37286805938543
 30
0
 11
34.04807557818
 21
48.39223542154837
 31
0
  0
LINE
  8
1
 62
7
 10
38.90554405466021
 20
43.53476694506815
 30
0
 11
41.17906991131071
 21
41.26124108841775
 31
0
  0
LINE
  8
1
 62
7
 10
50.43138458800101
 20
32.00892641172737
 30
0
 11
52.77562112277002
 21
29.66468987695833
 31
0
  0
LINE
  8
1
 62
7
 10
51.21998620415971
 20
28.10905495834793
 30
0
 11
53.41201722583801
 21
30.30108598002624
 31
0
  0
LINE
  8
1
 62
7
 10
22.44074020986722
 20
42.74616532890951
 30
0
 11
25.42137284770411
 21
39.76553269107256
 31
0
  0
LINE
  8
1
 62
7
 10
30.27884132418451
 20
34.90806421459222
 30
0
 11
37.0778505804287
 21
28.10905495834793
 31
0
  0
LINE
  8
1
 62
7
 10
24.6327712315455
 20
28.10905495834805
 30
0
 11
51.21998620415971
 21
28.10905495834793
 31
0
  0
LINE
  8
1
 62
7
 10
48.03800568882021
 20
48.12017686592724
 30
0
 11
41.17906991131071
 21
41.26124108841775
 31
0
  0
LINE
  8
1
 62
7
 10
44.7853144953621
 20
51.37286805938532
 30
0
 11
53.41201722583801
 21
42.74616532890951
 31
0
  0
LINE
  8
1
 62
7
 10
50.15932603237981
 20
45.99885652236758
 30
0
 11
43.30039025487031
 21
39.1399207448581
 31
0
  0
LINE
  8
1
 62
7
 10
43.30039025487031
 20
39.1399207448581
 30
0
 11
45.5739161115207
 21
36.8663948882077
 31
0
  0
LINE
  8
1
 62
7
 10
37.9263787178526
 20
49.14512089230964
 30
0
 11
36.4263787178526
 21
48.27909548852511
 31
0
  0
LINE
  8
1
 62
7
 10
36.4263787178526
 20
48.27909548852511
 30
0
 11
36.4263787178526
 21
46.54704468095627
 31
0
  0
LINE
  8
1
 62
7
 10
36.4263787178526
 20
46.54704468095627
 30
0
 11
37.9263787178526
 21
45.68101927717174
 31
0
  0
LINE
  8
1
 62
7
 10
37.9263787178526
 20
45.68101927717174
 30
0
 11
39.4263787178526
 21
46.54704468095627
 31
0
  0
LINE
  8
1
 62
7
 10
39.4263787178526
 20
46.54704468095627
 30
0
 11
39.4263787178526
 21
48.27909548852511
 31
0
  0
LINE
  8
1
 62
7
 10
39.4263787178526
 20
48.27909548852511
 30
0
 11
37.9263787178526
 21
49.14512089230964
 31
0
  0
LINE
  8
1
 62
7
 10
49.45221925119331
 20
37.61928035896886
 30
0
 11
47.95221925119331
 21
36.75325495518432
 31
0
  0
LINE
  8
1
 62
7
 10
47.95221925119331
 20
36.75325495518432
 30
0
 11
47.95221925119331
 21
35.02120414761549
 31
0
  0
LINE
  8
1
 62
7
 10
47.95221925119331
 20
35.02120414761549
 30
0
 11
49.45221925119331
 21
34.15517874383095
 31
0
  0
LINE
  8
1
 62
7
 10
49.45221925119331
 20
34.15517874383095
 30
0
 11
50.9522192511933
 21
35.02120414761549
 31
0
  0
LINE
  8
1
 62
7
 10
50.9522192511933
 20
35.02120414761549
 30
0
 11
50.9522192511933
 21
36.75325495518432
 31
0
  0
LINE
  8
1
 62
7
 10
50.9522192511933
 20
36.75325495518432
 30
0
 11
49.45221925119331
 21
37.61928035896886
 31
0
  0
LINE
  8
1
 62
7
 10
26.4005381845119
 20
37.61928035896886
 30
0
 11
24.9005381845119
 21
36.75325495518432
 31
0
  0
LINE
  8
1
 62
7
 10
24.9005381845119
 20
36.75325495518432
 30
0
 11
24.9005381845119
 21
35.02120414761549
 31
0
  0
LINE
  8
1
 62
7
 10
24.9005381845119
 20
35.02120414761549
 30
0
 11
26.4005381845119
 21
34.15517874383095
 31
0
  0
LINE
  8
1
 62
7
 10
26.4005381845119
 20
34.15517874383095
 30
0
 11
27.9005381845119
 21
35.02120414761549
 31
0
  0
LINE
  8
1
 62
7
 10
27.9005381845119
 20
35.02120414761549
 30
0
 11
27.9005381845119
 21
36.75325495518432
 31
0
  0
LINE
  8
1
 62
7
 10
27.9005381845119
 20
36.75325495518432
 30
0
 11
26.4005381845119
 21
37.61928035896886
 31
0
  0
LINE
  8
1
 62
7
 10
29.45397864096331
 20
49.75940376000568
 30
0
 11
29.08754395302061
 21
50.12583844794829
 31
0
  0
LINE
  8
1
 62
7
 10
51.77279033175969
 20
44.38539222298783
 30
0
 11
52.13924665040642
 21
44.75184854163461
 31
0
  0
LINE
  8
1
 62
7
 10
33.0023938442455
 20
28.10905495834805
 30
0
 11
33.2983787178526
 21
27.81307008474089
 31
0
  0
LINE
  8
1
 62
7
 10
51.10432744262121
 20
28.10905495834793
 30
0
 11
51.4003123162282
 21
27.81307008474089
 31
0
  0
LINE
  8
1
 62
3
  6
DIVIDE
 10
435.0882194810063
 20
34.18362835821375
 30
0
 11
427.6463729979596
 21
-8.021180305474989
 31
0
  0
LINE
  8
1
 62
3
  6
DIVIDE
 10
441.7579037614744
 20
34.18362835821375
 30
0
 11
434.3160572784277
 21
-8.021180305474989
 31
0
  0
LINE
  8
1
 62
7
 10
440.488276110462
 20
26.9832121433431
 30
0
 11
513
 21
26.9832121433431
 31
0
  0
LINE
  8
1
 62
7
 10
435.7150796939194
 20
-0.08692991525916179
 30
0
 11
513
 21
-0.08692991525915272
 31
0
  0
LINE
  8
1
 62
3
  6
CENTER
 10
17.4548086032541
 20
37.9130700847408
 30
0
 11
57.12637871785262
 21
37.9130700847408
 31
0
  0
LINE
  8
1
 62
3
  6
PHANTOM
 10
37.9263787178526
 20
52.8007390773336
 30
0
 11
37.9263787178526
 21
41.6958383414575
 31
0
  0
LINE
  8
1
 62
3
  6
PHANTOM
 10
26.4005381845119
 20
40.7642191522062
 30
0
 11
26.4005381845119
 21
31.0753795839922
 31
0
  0
LINE
  8
1
 62
3
  6
PHANTOM
 10
49.45221925119331
 20
40.5033657792158
 30
0
 11
49.45221925119331
 21
30.6654671407216
 31
0
  0
LINE
  8
1
 62
3
  6
PHANTOM
 10
55.0638702215095
 20
35.8872295513999
 30
0
 11
44.4434114640441
 21
35.8872295513999
 31
0
  0
LINE
  8
1
 62
3
  6
PHANTOM
 10
31.5498018848055
 20
35.8872295513999
 30
0
 11
20.7430192894899
 21
35.8872295513999
 31
0
  0
LINE
  8
1
 62
3
  6
PHANTOM
 10
32.7050096794772
 20
47.41307008474069
 30
0
 11
43.0646150639521
 21
47.41307008474069
 31
0
  0
CIRCLE
  8
1
 62
7
 10
343.4948573229231
 20
38.1030974062346
 30
0
 40
3
  0
CIRCLE
  8
1
 62
3
 10
343.4948573229231
 20
38.1030974062346
 30
0
 40
4
  0
CIRCLE
  8
1
 62
7
 10
283.4948573229231
 20
38.1030974062346
 30
0
 40
3
  0
CIRCLE
  8
1
 62
3
 10
283.4948573229231
 20
38.1030974062346
 30
0
 40
4
  0
CIRCLE
  8
1
 62
7
 10
253.494857322923
 20
38.1030974062346
 30
0
 40
3
  0
CIRCLE
  8
1
 62
3
 10
253.494857322923
 20
38.1030974062346
 30
0
 40
4
  0
CIRCLE
  8
1
 62
7
 10
223.494857322923
 20
38.1030974062346
 30
0
 40
3
  0
CIRCLE
  8
1
 62
3
 10
223.494857322923
 20
38.1030974062346
 30
0
 40
4
  0
CIRCLE
  8
1
 62
7
 10
463
 20
9.913070084740802
 30
0
 40
6.75
  0
CIRCLE
  8
1
 62
7
 10
463
 20
9.913070084740802
 30
0
 40
4.25
  0
CIRCLE
  8
1
 62
7
 10
363
 20
9.913070084740802
 30
0
 40
6.75
  0
CIRCLE
  8
1
 62
7
 10
363
 20
9.913070084740802
 30
0
 40
4.249999999999998
  0
CIRCLE
  8
1
 62
7
 10
313.4948573229231
 20
38.1030974062346
 30
0
 40
3
  0
CIRCLE
  8
1
 62
3
 10
313.4948573229231
 20
38.1030974062346
 30
0
 40
4
  0
CIRCLE
  8
1
 62
7
 10
373.4948573229231
 20
38.1030974062346
 30
0
 40
3
  0
CIRCLE
  8
1
 62
3
 10
373.4948573229231
 20
38.1030974062346
 30
0
 40
4
  0
CIRCLE
  8
1
 62
7
 10
193.494857322923
 20
38.1030974062346
 30
0
 40
3
  0
CIRCLE
  8
1
 62
3
 10
193.494857322923
 20
38.1030974062346
 30
0
 40
4
  0
ARC
  8
1
 62
7
 10
37.9263787178526
 20
47.41307008474069
 30
0
 40
4.000000000000009
 50
165.8304974317887
 51
284.1695025682105
  0
ARC
  8
1
 62
7
 10
49.45221925119331
 20
35.88722955140002
 30
0
 40
4.000000000000015
 50
165.8304974317887
 51
284.1695025682113
  0
ARC
  8
1
 62
7
 10
26.4005381845119
 20
35.88722955140002
 30
0
 40
4.000000000000044
 50
345.8304974317871
 51
104.169502568213
  0
CIRCLE
  8
1
 62
7
 10
163
 20
9.913070084740802
 30
0
 40
6.75
  0
CIRCLE
  8
1
 62
7
 10
163
 20
9.913070084740802
 30
0
 40
4.25
  0
CIRCLE
  8
1
 62
7
 10
263
 20
9.913070084740802
 30
0
 40
6.75
  0
CIRCLE
  8
1
 62
7
 10
263
 20
9.913070084740802
 30
0
 40
4.25
  0
CIRCLE
  8
1
 62
7
 10
37.9263787178526
 20
47.41307008474069
 30
0
 40
3.499999999999968
  0
CIRCLE
  8
1
 62
7
 10
49.45221925119331
 20
35.88722955140002
 30
0
 40
3.500000000000114
  0
CIRCLE
  8
1
 62
7
 10
26.4005381845119
 20
35.88722955140002
 30
0
 40
3.499999999999971
  0
TEXT
  8
1
 62
2
 10
428.029391912917
 20
-49.14857794791629
 30
0
 40
6
  1
UNION TOOL CO.
 41
0.9
  7
COMPLEX
  0
TEXT
  8
1
 62
2
 10
32.60096432175749
 20
86.22950811948208
 30
0
 40
6
  1
MODEL : TGH6L
 41
0.9
  7
COMPLEX
  0
ENDSEC
  0
EOF
