  0
SECTION
  2
HEADER
  9
$ACADVER
  1
AC1009
  9
$INSBASE
 10
0
 20
0
  9
$EXTMIN
 10
243.2602407422139
 20
614.6541483469418
  9
$EXTMAX
 10
488.5984203302971
 20
700.863669590196
  9
$LIMMIN
 10
243.2602407422139
 20
614.6541483469418
  9
$LIMMAX
 10
488.5984203302971
 20
700.863669590196
  9
$VIEWCTR
 10
10
 20
10
  9
$VIEWSIZE
 40
10
  9
$SNAPMODE
 70
0
  9
$SNAPUNIT
 10
1
 20
1
  9
$SNAPBASE
 10
0
 20
0
  9
$SNAPANG
 50
0
  9
$SNAPSTYLE
 70
0
  9
$SNAPISOPAIR
 70
0
  9
$GRIDMODE
 70
0
  9
$GRIDUNIT
 10
0
 20
0
  9
$ORTHOMODE
 70
0
  9
$REGENMODE
 70
1
  9
$FILLMODE
 70
1
  9
$QTEXTMODE
 70
0
  9
$DRAGMODE
 70
2
  9
$LTSCALE
 40
1
  9
$OSMODE
 70
0
  9
$ATTMODE
 70
1
  9
$TEXTSIZE
 40
3.5
  9
$TRACEWID
 40
0.5
  9
$TEXTSTYLE
  7
STANDARD
  9
$CLAYER
  8
0
  9
$CELTYPE
  6
BYLAYER
  9
$CECOLOR
 62
256
  9
$DIMSCALE
 40
1
  9
$DIMASZ
 40
0.18
  9
$DIMEXO
 40
0.0625
  9
$DIMDLI
 40
0.38
  9
$DIMRND
 40
0
  9
$DIMDLE
 40
0
  9
$DIMEXE
 40
0.18
  9
$DIMTP
 40
0
  9
$DIMTM
 40
0
  9
$DIMTXT
 40
0.18
  9
$DIMCEN
 40
0.09
  9
$DIMTSZ
 40
0
  9
$DIMTOL
 70
0
  9
$DIMLIM
 70
0
  9
$DIMTIH
 70
1
  9
$DIMTOH
 70
1
  9
$DIMSE1
 70
0
  9
$DIMSE2
 70
0
  9
$DIMTAD
 70
0
  9
$DIMZIN
 70
0
  9
$DIMBLK
  1

  9
$DIMASO
 70
1
  9
$DIMSHO
 70
1
  9
$DIMPOST
  1

  9
$DIMAPOST
  1

  9
$DIMALT
 70
0
  9
$DIMALTD
 70
2
  9
$DIMALTF
 40
25.4
  9
$DIMLFAC
 40
1
  9
$DIMTOFL
 70
0
  9
$DIMTVP
 40
0
  9
$DIMTIX
 70
0
  9
$DIMSOXD
 70
0
  9
$DIMSAH
 70
0
  9
$DIMBLK1
  1

  9
$DIMBLK2
  1

  9
$DIMSTYLE
  2
*UNNAMED
  9
$DIMCLRD
 70
0
  9
$DIMCLRE
 70
0
  9
$DIMCLRT
 70
0
  9
$DIMTFAC
 40
1
  9
$DIMGAP
 40
0.09
  9
$LUNITS
 70
2
  9
$LUPREC
 70
4
  9
$AXISMODE
 70
0
  9
$AXISUNIT
 10
0
 20
0
  9
$SKETCHINC
 40
0.1
  9
$FILLETRAD
 40
2
  9
$AUNITS
 70
0
  9
$AUPREC
 70
0
  9
$MENU
  1
ACAD
  9
$ELEVATION
 40
0
  9
$THICKNESS
 40
0
  9
$VIEWDIR
 10
0
 20
0
 30
1
  9
$LIMCHECK
 70
0
  9
$BLIPMODE
 70
1
  9
$CHAMFERA
 40
0
  9
$CHAMFERB
 40
0
  9
$FASTZOOM
 70
1
  9
$SKPOLY
 70
0
  9
$ANGBASE
 50
0
  9
$ANGDIR
 70
0
  9
$PDMODE
 70
0
  9
$PDSIZE
 40
0
  9
$PLINEWID
 40
0
  9
$COORDS
 70
2
  0
ENDSEC
  0
SECTION
  2
TABLES
  0
TABLE
  2
DIMSTYLE
 70
0
  0
ENDTAB
  0
TABLE
  2
LTYPE
 70
9
  0
LTYPE
  2
CONTINUOUS
 70
64
  3
Solid line
 72
65
 73
0
 40
0
  0
LTYPE
  2
BORDER
 70
64
  3
__ __ . __ __ .
 72
65
 73
6
 40
11.29846879681962
 49
3.228133941948463
 49
-1.614066970974231
 49
3.228133941948463
 49
-1.614066970974231
 49
0
 49
-1.614066970974231
  0
LTYPE
  2
CENTER
 70
64
  3
____ _ ____ _
 72
65
 73
4
 40
12.91253576779385
 49
8.070334854871156
 49
-1.614066970974231
 49
1.614066970974231
 49
-1.614066970974231
  0
LTYPE
  2
DASHDOT
 70
64
  3
__ . __ . __ .
 72
65
 73
4
 40
6.456267883896925
 49
3.228133941948463
 49
-1.614066970974231
 49
0
 49
-1.614066970974231
  0
LTYPE
  2
DASHED
 70
64
  3
__ __ __ __ __
 72
65
 73
2
 40
4.842200912922694
 49
3.228133941948463
 49
-1.614066970974231
  0
LTYPE
  2
DIVIDE
 70
64
  3
__ . . __ . . 
 72
65
 73
6
 40
8.070334854871156
 49
3.228133941948463
 49
-1.614066970974231
 49
0
 49
-1.614066970974231
 49
0
 49
-1.614066970974231
  0
LTYPE
  2
DOT
 70
64
  3
..............
 72
65
 73
4
 40
3.228133941948463
 49
0
 49
-1.614066970974231
 49
0
 49
-1.614066970974231
  0
LTYPE
  2
HIDDEN
 70
64
  3
_ _ _ _ _ _ _
 72
65
 73
2
 40
2.421100456461347
 49
1.614066970974231
 49
-0.8070334854871156
  0
LTYPE
  2
PHANTOM
 70
64
  3
_____ _ _ _____ _ _ 
 72
65
 73
6
 40
16.14066970974231
 49
8.070334854871156
 49
-1.614066970974231
 49
1.614066970974231
 49
-1.614066970974231
 49
1.614066970974231
 49
-1.614066970974231
  0
ENDTAB
  0
TABLE
  2
LAYER
 70
3
  0
LAYER
  2
1
 70
0
 62
7
  6
CONTINUOUS
  0
LAYER
  2
0
 70
0
 62
7
  6
CONTINUOUS
  0
ENDTAB
  0
TABLE
  2
STYLE
 70
4
  0
STYLE
  2
STANDARD
 70
0
 40
0
 41
1
 50
0
 71
0
 42
3.5
  3
txt
  4

  0
STYLE
  2
SIMPLEX
 70
0
 40
0
 41
1
 50
0
 71
0
 42
3.5
  3
simplex
  4

  0
STYLE
  2
COMPLEX
 70
0
 40
0
 41
1
 50
0
 71
0
 42
3.5
  3
complex
  4

  0
STYLE
  2
ITALIC
 70
0
 40
0
 41
1
 50
0
 71
0
 42
3.5
  3
italic
  4

  0
ENDTAB
  0
TABLE
  2
VIEW
 70
0
  0
ENDTAB
  0
ENDSEC
  0
SECTION
  2
BLOCKS
  0
ENDSEC
  0
SECTION
  2
ENTITIES
  0
LINE
  8
1
 62
3
  6
CENTER
 10
419.1984203302974
 20
648.2047817646941
 30
0
 11
431.9984203302967
 21
648.2047817646941
 31
0
  0
LINE
  8
1
 62
3
  6
CENTER
 10
425.5984203302961
 20
641.8047817646926
 30
0
 11
425.5984203302961
 21
654.6047817646955
 31
0
  0
LINE
  8
1
 62
7
 10
440.5535657190175
 20
642.7047817646941
 30
0
 11
300.5984203302962
 21
642.7047817646941
 31
0
  0
LINE
  8
1
 62
7
 10
443.0926742412169
 20
657.1047817646798
 30
0
 11
300.5984203302962
 21
657.1047817646955
 31
0
  0
LINE
  8
1
 62
3
  6
DIVIDE
 10
447.6547201388514
 20
662.2470302228945
 30
0
 11
443.227300727638
 21
637.1378870082575
 31
0
  0
LINE
  8
1
 62
3
  6
DIVIDE
 10
443.9993913859067
 20
662.2470302228945
 30
0
 11
439.5719719746933
 21
637.1378870082575
 31
0
  0
LINE
  8
1
 62
7
 10
261.0136865982225
 20
659.3558964935266
 30
0
 11
261.0136865982236
 21
659.3558964935277
 31
0
  0
LINE
  8
1
 62
7
 10
259.4580516796142
 20
657.8002615749183
 30
0
 11
261.0136865982236
 21
659.3558964935277
 31
0
  0
LINE
  8
1
 62
7
 10
244.6088092746954
 20
659.3558964935279
 30
0
 11
246.1644441933057
 21
657.8002615749176
 31
0
  0
LINE
  8
1
 62
7
 10
244.6088092746967
 20
665.5784361679703
 30
0
 11
244.6088092746954
 21
659.3558964935279
 31
0
  0
LINE
  8
1
 62
7
 10
248.4271858931051
 20
669.3968127863786
 30
0
 11
244.6088092746967
 21
665.5784361679703
 31
0
  0
LINE
  8
1
 62
7
 10
261.3112479364583
 20
665.204781764697
 30
0
 11
261.3112479364583
 21
658.004781764697
 31
0
  0
LINE
  8
1
 62
7
 10
252.8112479364583
 20
642.7047817646941
 30
0
 11
244.8112479364583
 21
642.7047817646941
 31
0
  0
LINE
  8
1
 62
7
 10
244.3112479364583
 20
656.6047817646955
 30
0
 11
244.3112479364583
 21
643.2047817646941
 31
0
  0
LINE
  8
1
 62
7
 10
247.0228208117125
 20
657.1047817646955
 30
0
 11
244.8112479364583
 21
657.1047817646955
 31
0
  0
LINE
  8
1
 62
7
 10
247.0228208117125
 20
657.1047817646955
 30
0
 11
249.4212479364589
 21
654.7063546399556
 31
0
  0
LINE
  8
1
 62
7
 10
249.4212479364589
 20
654.7063546399556
 30
0
 11
251.8196750612053
 21
657.1047817646955
 31
0
  0
LINE
  8
1
 62
7
 10
251.8196750612053
 20
657.1047817646955
 30
0
 11
253.8028208117123
 21
657.1047817646955
 31
0
  0
LINE
  8
1
 62
7
 10
248.8112479364597
 20
669.7047817646941
 30
0
 11
256.8112479364597
 21
669.7047817646941
 31
0
  0
LINE
  8
1
 62
7
 10
244.8112479364583
 20
657.1047817646955
 30
0
 11
244.3112479364583
 21
656.6047817646955
 31
0
  0
LINE
  8
1
 62
7
 10
244.3112479364583
 20
643.2047817646941
 30
0
 11
244.8112479364583
 21
642.7047817646941
 31
0
  0
LINE
  8
1
 62
7
 10
260.8112479364583
 20
657.504781764697
 30
0
 11
261.3112479364583
 21
658.004781764697
 31
0
  0
LINE
  8
1
 62
7
 10
260.8112479364583
 20
642.7047817646941
 30
0
 11
261.3112479364583
 21
643.2047817646941
 31
0
  0
LINE
  8
1
 62
7
 10
261.3112479364583
 20
656.6047817646955
 30
0
 11
260.8112479364583
 21
657.1047817646955
 31
0
  0
LINE
  8
1
 62
7
 10
260.8112479364583
 20
657.504781764697
 30
0
 11
259.6112479364596
 21
657.504781764697
 31
0
  0
LINE
  8
1
 62
7
 10
253.8028208117123
 20
657.1047817646955
 30
0
 11
256.2012479364587
 21
654.7063546399556
 31
0
  0
LINE
  8
1
 62
7
 10
256.2012479364587
 20
654.7063546399556
 30
0
 11
258.5996750612051
 21
657.1047817646955
 31
0
  0
LINE
  8
1
 62
7
 10
260.8112479364583
 20
657.1047817646955
 30
0
 11
258.5996750612051
 21
657.1047817646955
 31
0
  0
LINE
  8
1
 62
7
 10
261.3112479364583
 20
643.2047817646941
 30
0
 11
261.3112479364583
 21
656.6047817646955
 31
0
  0
LINE
  8
1
 62
7
 10
260.8112479364583
 20
642.7047817646941
 30
0
 11
252.8112479364583
 21
642.7047817646941
 31
0
  0
LINE
  8
1
 62
3
  6
CENTER
 10
243.2602407422139
 20
648.2047817646941
 30
0
 11
262.4904565695526
 21
648.2047817646941
 31
0
  0
LINE
  8
1
 62
7
 10
488.5984203302961
 20
657.1047817646955
 30
0
 11
488.5984203302961
 21
642.7047817646941
 31
0
  0
LINE
  8
1
 62
7
 10
488.5984203302961
 20
642.7047817646941
 30
0
 11
444.2088944719623
 21
642.7047817646941
 31
0
  0
LINE
  8
1
 62
7
 10
300.5984203302962
 20
642.7047817646941
 30
0
 11
300.5984203302962
 21
657.1047817646955
 31
0
  0
LINE
  8
1
 62
7
 10
348.1585967947059
 20
657.504781764697
 30
0
 11
348.1585967947059
 21
669.7047817646941
 31
0
  0
LINE
  8
1
 62
7
 10
334.1585967947059
 20
669.7047817646941
 30
0
 11
334.1585967947059
 21
657.1047817646955
 31
0
  0
LINE
  8
1
 62
7
 10
337.1585967947059
 20
667.7047817646941
 30
0
 11
348.1585967947059
 21
667.7047817646941
 31
0
  0
LINE
  8
1
 62
7
 10
337.1585967947059
 20
669.7047817646941
 30
0
 11
337.1585967947059
 21
657.504781764697
 31
0
  0
LINE
  8
1
 62
7
 10
334.1585967947059
 20
669.7047817646941
 30
0
 11
412.1585967947059
 21
669.7047817646941
 31
0
  0
LINE
  8
1
 62
7
 10
337.1585967947059
 20
657.504781764697
 30
0
 11
409.1585967947059
 21
657.504781764697
 31
0
  0
LINE
  8
1
 62
7
 10
398.1585967947059
 20
657.504781764697
 30
0
 11
398.1585967947059
 21
669.7047817646941
 31
0
  0
LINE
  8
1
 62
7
 10
412.1585967947059
 20
669.7047817646941
 30
0
 11
412.1585967947059
 21
657.1047817646955
 31
0
  0
LINE
  8
1
 62
7
 10
488.5984203302971
 20
657.1047817646737
 30
0
 11
446.7480029941615
 21
657.1047817646791
 31
0
  0
LINE
  8
1
 62
7
 10
398.1585967947059
 20
667.7047817646941
 30
0
 11
409.1585967947059
 21
667.7047817646941
 31
0
  0
LINE
  8
1
 62
7
 10
409.1585967947059
 20
669.7047817646941
 30
0
 11
409.1585967947059
 21
657.504781764697
 31
0
  0
LINE
  8
1
 62
3
  6
CENTER
 10
361.7585967947055
 20
662.2047817646941
 30
0
 11
361.3585967947057
 21
662.2047817646941
 31
0
  0
LINE
  8
1
 62
3
  6
CENTER
 10
376.7585967947064
 20
662.2047817646941
 30
0
 11
369.5585967947056
 21
662.2047817646941
 31
0
  0
LINE
  8
1
 62
3
  6
CENTER
 10
373.1585967947059
 20
665.8047817646926
 30
0
 11
373.1585967947059
 21
658.6047817646955
 31
0
  0
LINE
  8
1
 62
3
  6
CENTER
 10
391.7585967947064
 20
662.2047817646941
 30
0
 11
384.5585967947056
 21
662.2047817646941
 31
0
  0
LINE
  8
1
 62
3
  6
CENTER
 10
388.1585967947059
 20
665.8047817646926
 30
0
 11
388.1585967947059
 21
658.6047817646955
 31
0
  0
LINE
  8
1
 62
3
  6
CENTER
 10
319.1984203302974
 20
648.2047817646941
 30
0
 11
331.9984203302967
 21
648.2047817646941
 31
0
  0
LINE
  8
1
 62
3
  6
CENTER
 10
325.5984203302961
 20
641.8047817646926
 30
0
 11
325.5984203302961
 21
654.6047817646955
 31
0
  0
LINE
  8
1
 62
3
  6
CENTER
 10
369.1984203302974
 20
648.2047817646941
 30
0
 11
381.9984203302967
 21
648.2047817646941
 31
0
  0
LINE
  8
1
 62
3
  6
CENTER
 10
375.5984203302961
 20
641.8047817646926
 30
0
 11
375.5984203302961
 21
654.6047817646955
 31
0
  0
LINE
  8
1
 62
3
  6
CENTER
 10
457.1984203302974
 20
648.2047817646941
 30
0
 11
469.9984203302967
 21
648.2047817646941
 31
0
  0
LINE
  8
1
 62
3
  6
CENTER
 10
463.5984203302961
 20
641.8047817646926
 30
0
 11
463.5984203302961
 21
654.6047817646955
 31
0
  0
LINE
  8
1
 62
3
  6
CENTER
 10
359.7585967947064
 20
662.2047817646941
 30
0
 11
354.9585967947061
 21
662.2047817646941
 31
0
  0
LINE
  8
1
 62
3
  6
CENTER
 10
360.1585967947059
 20
662.2047817646941
 30
0
 11
359.7585967947064
 21
662.2047817646941
 31
0
  0
LINE
  8
1
 62
3
  6
CENTER
 10
354.9585967947061
 20
662.2047817646941
 30
0
 11
361.3585967947057
 21
662.2047817646941
 31
0
  0
LINE
  8
1
 62
3
  6
CENTER
 10
354.9585967947061
 20
662.2047817646941
 30
0
 11
354.5585967947056
 21
662.2047817646941
 31
0
  0
LINE
  8
1
 62
3
  6
CENTER
 10
361.3585967947057
 20
662.2047817646941
 30
0
 11
360.1585967947059
 21
662.2047817646941
 31
0
  0
LINE
  8
1
 62
3
  6
CENTER
 10
358.1585967947059
 20
659.004781764697
 30
0
 11
358.1585967947059
 21
665.4047817646984
 31
0
  0
LINE
  8
1
 62
3
  6
CENTER
 10
358.1585967947059
 20
665.4047817646984
 30
0
 11
358.1585967947059
 21
659.004781764697
 31
0
  0
LINE
  8
1
 62
3
  6
CENTER
 10
374.7585967947064
 20
662.2047817646941
 30
0
 11
369.9585967947061
 21
662.2047817646941
 31
0
  0
LINE
  8
1
 62
3
  6
CENTER
 10
375.1585967947059
 20
662.2047817646941
 30
0
 11
374.7585967947064
 21
662.2047817646941
 31
0
  0
LINE
  8
1
 62
7
 10
244.6088092746962
 20
663.0328517556973
 30
0
 11
244.962362665289
 21
662.6792983651044
 31
0
  0
LINE
  8
1
 62
7
 10
244.962362665289
 20
662.6792983651044
 30
0
 11
245.1391393605856
 21
662.8560750604011
 31
0
  0
LINE
  8
1
 62
7
 10
248.4625412321624
 20
659.5326731888243
 30
0
 11
248.2857645368657
 21
659.3558964935277
 31
0
  0
LINE
  8
1
 62
7
 10
248.2857645368657
 20
659.3558964935277
 30
0
 11
249.8413994554755
 21
657.8002615749178
 31
0
  0
LINE
  8
1
 62
7
 10
259.8116050702062
 20
666.7805176959867
 30
0
 11
256.7003352329854
 21
663.6692478587659
 31
0
  0
LINE
  8
1
 62
7
 10
256.7003352329854
 20
663.6692478587659
 30
0
 11
257.3367313360536
 21
663.0328517556977
 31
0
  0
LINE
  8
1
 62
7
 10
257.3367313360536
 20
663.0328517556977
 30
0
 11
257.1599546407569
 21
662.8560750604011
 31
0
  0
LINE
  8
1
 62
7
 10
260.4833565123337
 20
659.5326731888243
 30
0
 11
260.6601332076303
 21
659.7094498841209
 31
0
  0
LINE
  8
1
 62
7
 10
260.6601332076303
 20
659.7094498841209
 30
0
 11
261.0136865982236
 21
659.3558964935277
 31
0
  0
LINE
  8
1
 62
7
 10
261.0136865982236
 20
659.3558964935277
 30
0
 11
261.0136865982238
 21
665.578436167969
 31
0
  0
LINE
  8
1
 62
7
 10
261.0136865982236
 20
659.3558964935277
 30
0
 11
261.0136865982225
 21
659.3558964935266
 31
0
  0
LINE
  8
1
 62
7
 10
258.3973915078331
 20
668.1947312583598
 30
0
 11
255.2861216706123
 21
665.083461421139
 31
0
  0
LINE
  8
1
 62
7
 10
257.1953099798167
 20
669.3968127863761
 30
0
 11
261.0136865982238
 21
665.578436167969
 31
0
  0
LINE
  8
1
 62
7
 10
255.2861216706123
 20
665.083461421139
 30
0
 11
254.6497255675447
 21
665.7198575242067
 31
0
  0
LINE
  8
1
 62
7
 10
254.6497255675447
 20
665.7198575242067
 30
0
 11
254.4729488722481
 21
665.5430808289099
 31
0
  0
LINE
  8
1
 62
7
 10
251.1495470006713
 20
668.8664827004867
 30
0
 11
251.3263236959679
 21
669.0432593957834
 31
0
  0
LINE
  8
1
 62
7
 10
251.3263236959679
 20
669.0432593957834
 30
0
 11
250.9727703053733
 21
669.396812786378
 31
0
  0
LINE
  8
1
 62
7
 10
248.4271858931051
 20
669.3968127863786
 30
0
 11
257.1953099798167
 21
669.3968127863761
 31
0
  0
LINE
  8
1
 62
7
 10
250.5157681262388
 20
657.8002615749178
 30
0
 11
250.8112479364597
 21
657.504781764697
 31
0
  0
LINE
  8
1
 62
7
 10
246.0112479364597
 20
657.504781764697
 30
0
 11
246.3067277466803
 21
657.8002615749176
 31
0
  0
LINE
  8
1
 62
7
 10
246.0112479364597
 20
657.504781764697
 30
0
 11
245.3090286310838
 21
657.504781764697
 31
0
  0
LINE
  8
1
 62
7
 10
254.8112479364597
 20
657.504781764697
 30
0
 11
255.1067277466807
 21
657.8002615749181
 31
0
  0
LINE
  8
1
 62
7
 10
254.8112479364597
 20
657.504781764697
 30
0
 11
250.8112479364597
 21
657.504781764697
 31
0
  0
LINE
  8
1
 62
7
 10
259.3157681262384
 20
657.8002615749183
 30
0
 11
259.6112479364596
 21
657.504781764697
 31
0
  0
LINE
  8
1
 62
7
 10
259.4580516796142
 20
657.8002615749183
 30
0
 11
246.1644441933057
 21
657.8002615749176
 31
0
  0
LINE
  8
1
 62
7
 10
244.3112479364583
 20
665.204781764697
 30
0
 11
244.6088092746967
 21
665.5023431029351
 31
0
  0
LINE
  8
1
 62
7
 10
248.5032789581439
 20
669.3968127863786
 30
0
 11
248.8112479364597
 21
669.7047817646941
 31
0
  0
LINE
  8
1
 62
7
 10
256.8112479364597
 20
669.7047817646941
 30
0
 11
257.1192169147777
 21
669.3968127863761
 31
0
  0
LINE
  8
1
 62
7
 10
261.0136865982238
 20
665.5023431029314
 30
0
 11
261.3112479364583
 21
665.204781764697
 31
0
  0
LINE
  8
1
 62
7
 10
244.3112479364583
 20
658.5025624593221
 30
0
 11
245.3090286310838
 21
657.504781764697
 31
0
  0
LINE
  8
1
 62
7
 10
244.3112479364583
 20
658.5025624593221
 30
0
 11
244.3112479364583
 21
665.204781764697
 31
0
  0
LINE
  8
1
 62
3
  6
CENTER
 10
249.9110948856384
 20
667.2047817646984
 30
0
 11
255.4488784480693
 21
667.2047817646984
 31
0
  0
LINE
  8
1
 62
3
  6
CENTER
 10
255.9138831746856
 20
661.1943741246128
 30
0
 11
260.7752962256747
 21
661.1943741246128
 31
0
  0
LINE
  8
1
 62
3
  6
CENTER
 10
244.9017257852715
 20
661.1943741246128
 30
0
 11
249.6574559438477
 21
661.1943741246128
 31
0
  0
LINE
  8
1
 62
3
  6
CENTER
 10
252.8112479364597
 20
669.1015636802849
 30
0
 11
252.8112479364597
 21
665.2969795534239
 31
0
  0
LINE
  8
1
 62
3
  6
CENTER
 10
258.8216555765453
 20
663.1410485482029
 30
0
 11
258.8216555765453
 21
658.3641818111439
 31
0
  0
LINE
  8
1
 62
3
  6
CENTER
 10
246.6956651165452
 20
664.0499214229529
 30
0
 11
246.6956651165452
 21
659.0616889010689
 31
0
  0
ARC
  8
1
 62
7
 10
246.800840296374
 20
661.1943741246128
 30
0
 40
2.350000000000043
 50
315
 51
135.0000000000015
  0
ARC
  8
1
 62
7
 10
258.8216555765453
 20
661.1943741246128
 30
0
 40
2.349999999999963
 50
135.000000000002
 51
315
  0
ARC
  8
1
 62
7
 10
252.8112479364597
 20
667.2047817646984
 30
0
 40
2.349999999999942
 50
135.0000000000015
 51
314.999999999998
  0
CIRCLE
  8
1
 62
7
 10
425.5984203302961
 20
648.2047817646941
 30
0
 40
4
  0
CIRCLE
  8
1
 62
7
 10
425.5984203302961
 20
648.2047817646941
 30
0
 40
2.25
  0
CIRCLE
  8
1
 62
7
 10
325.5984203302961
 20
648.2047817646941
 30
0
 40
4
  0
CIRCLE
  8
1
 62
7
 10
325.5984203302961
 20
648.2047817646941
 30
0
 40
2.25
  0
CIRCLE
  8
1
 62
7
 10
375.5984203302961
 20
648.2047817646941
 30
0
 40
4
  0
CIRCLE
  8
1
 62
7
 10
375.5984203302961
 20
648.2047817646941
 30
0
 40
2.25
  0
CIRCLE
  8
1
 62
7
 10
463.5984203302961
 20
648.2047817646941
 30
0
 40
4
  0
CIRCLE
  8
1
 62
7
 10
463.5984203302961
 20
648.2047817646941
 30
0
 40
2.25
  0
CIRCLE
  8
1
 62
7
 10
358.1585967947059
 20
662.2047817646941
 30
0
 40
1.600000000000534
  0
CIRCLE
  8
1
 62
3
 10
358.1585967947059
 20
662.2047817646941
 30
0
 40
2
  0
CIRCLE
  8
1
 62
7
 10
373.1585967947059
 20
662.2047817646941
 30
0
 40
1.600000000000534
  0
CIRCLE
  8
1
 62
3
 10
373.1585967947059
 20
662.2047817646941
 30
0
 40
2
  0
CIRCLE
  8
1
 62
3
 10
388.1585967947059
 20
662.2047817646941
 30
0
 40
2
  0
CIRCLE
  8
1
 62
7
 10
388.1585967947059
 20
662.2047817646941
 30
0
 40
1.600000000000534
  0
CIRCLE
  8
1
 62
7
 10
252.8112479364597
 20
667.2047817646984
 30
0
 40
1.500000000000032
  0
CIRCLE
  8
1
 62
7
 10
258.8216555765453
 20
661.1943741246128
 30
0
 40
1.500000000000012
  0
CIRCLE
  8
1
 62
7
 10
246.800840296374
 20
661.1943741246128
 30
0
 40
1.500000000000032
  0
TEXT
  8
1
 62
2
 10
421.9204254528261
 20
614.6541483469418
 30
0
 40
4
  1
UNION TOOL CO.
 41
0.9
  7
COMPLEX
  0
TEXT
  8
1
 62
2
 10
247.0080651670043
 20
696.863669590196
 30
0
 40
4
  1
MODEL : TGH3SM
 41
0.9
  7
COMPLEX
  0
ENDSEC
  0
EOF
