  0
SECTION
  2
HEADER
  9
$ACADVER
  1
AC1009
  9
$INSBASE
 10
0
 20
0
  9
$EXTMIN
 10
228.0990537813214
 20
370.1990695720722
  9
$EXTMAX
 10
525.7656873476226
 20
488.7692512016261
  9
$LIMMIN
 10
228.0990537813214
 20
370.1990695720722
  9
$LIMMAX
 10
525.7656873476226
 20
488.7692512016261
  9
$VIEWCTR
 10
10
 20
10
  9
$VIEWSIZE
 40
10
  9
$SNAPMODE
 70
0
  9
$SNAPUNIT
 10
1
 20
1
  9
$SNAPBASE
 10
0
 20
0
  9
$SNAPANG
 50
0
  9
$SNAPSTYLE
 70
0
  9
$SNAPISOPAIR
 70
0
  9
$GRIDMODE
 70
0
  9
$GRIDUNIT
 10
0
 20
0
  9
$ORTHOMODE
 70
0
  9
$REGENMODE
 70
1
  9
$FILLMODE
 70
1
  9
$QTEXTMODE
 70
0
  9
$DRAGMODE
 70
2
  9
$LTSCALE
 40
1
  9
$OSMODE
 70
0
  9
$ATTMODE
 70
1
  9
$TEXTSIZE
 40
3.5
  9
$TRACEWID
 40
0.5
  9
$TEXTSTYLE
  7
STANDARD
  9
$CLAYER
  8
0
  9
$CELTYPE
  6
BYLAYER
  9
$CECOLOR
 62
256
  9
$DIMSCALE
 40
1
  9
$DIMASZ
 40
0.18
  9
$DIMEXO
 40
0.0625
  9
$DIMDLI
 40
0.38
  9
$DIMRND
 40
0
  9
$DIMDLE
 40
0
  9
$DIMEXE
 40
0.18
  9
$DIMTP
 40
0
  9
$DIMTM
 40
0
  9
$DIMTXT
 40
0.18
  9
$DIMCEN
 40
0.09
  9
$DIMTSZ
 40
0
  9
$DIMTOL
 70
0
  9
$DIMLIM
 70
0
  9
$DIMTIH
 70
1
  9
$DIMTOH
 70
1
  9
$DIMSE1
 70
0
  9
$DIMSE2
 70
0
  9
$DIMTAD
 70
0
  9
$DIMZIN
 70
0
  9
$DIMBLK
  1

  9
$DIMASO
 70
1
  9
$DIMSHO
 70
1
  9
$DIMPOST
  1

  9
$DIMAPOST
  1

  9
$DIMALT
 70
0
  9
$DIMALTD
 70
2
  9
$DIMALTF
 40
25.4
  9
$DIMLFAC
 40
1
  9
$DIMTOFL
 70
0
  9
$DIMTVP
 40
0
  9
$DIMTIX
 70
0
  9
$DIMSOXD
 70
0
  9
$DIMSAH
 70
0
  9
$DIMBLK1
  1

  9
$DIMBLK2
  1

  9
$DIMSTYLE
  2
*UNNAMED
  9
$DIMCLRD
 70
0
  9
$DIMCLRE
 70
0
  9
$DIMCLRT
 70
0
  9
$DIMTFAC
 40
1
  9
$DIMGAP
 40
0.09
  9
$LUNITS
 70
2
  9
$LUPREC
 70
4
  9
$AXISMODE
 70
0
  9
$AXISUNIT
 10
0
 20
0
  9
$SKETCHINC
 40
0.1
  9
$FILLETRAD
 40
2
  9
$AUNITS
 70
0
  9
$AUPREC
 70
0
  9
$MENU
  1
ACAD
  9
$ELEVATION
 40
0
  9
$THICKNESS
 40
0
  9
$VIEWDIR
 10
0
 20
0
 30
1
  9
$LIMCHECK
 70
0
  9
$BLIPMODE
 70
1
  9
$CHAMFERA
 40
0
  9
$CHAMFERB
 40
0
  9
$FASTZOOM
 70
1
  9
$SKPOLY
 70
0
  9
$ANGBASE
 50
0
  9
$ANGDIR
 70
0
  9
$PDMODE
 70
0
  9
$PDSIZE
 40
0
  9
$PLINEWID
 40
0
  9
$COORDS
 70
2
  0
ENDSEC
  0
SECTION
  2
TABLES
  0
TABLE
  2
DIMSTYLE
 70
0
  0
ENDTAB
  0
TABLE
  2
LTYPE
 70
9
  0
LTYPE
  2
CONTINUOUS
 70
64
  3
Solid line
 72
65
 73
0
 40
0
  0
LTYPE
  2
BORDER
 70
64
  3
__ __ . __ __ .
 72
65
 73
6
 40
13.7083318089744
 49
3.916666231135542
 49
-1.958333115567771
 49
3.916666231135542
 49
-1.958333115567771
 49
0
 49
-1.958333115567771
  0
LTYPE
  2
CENTER
 70
64
  3
____ _ ____ _
 72
65
 73
4
 40
15.66666492454217
 49
9.791665577838856
 49
-1.958333115567771
 49
1.958333115567771
 49
-1.958333115567771
  0
LTYPE
  2
DASHDOT
 70
64
  3
__ . __ . __ .
 72
65
 73
4
 40
7.833332462271084
 49
3.916666231135542
 49
-1.958333115567771
 49
0
 49
-1.958333115567771
  0
LTYPE
  2
DASHED
 70
64
  3
__ __ __ __ __
 72
65
 73
2
 40
5.874999346703313
 49
3.916666231135542
 49
-1.958333115567771
  0
LTYPE
  2
DIVIDE
 70
64
  3
__ . . __ . . 
 72
65
 73
6
 40
9.791665577838856
 49
3.916666231135542
 49
-1.958333115567771
 49
0
 49
-1.958333115567771
 49
0
 49
-1.958333115567771
  0
LTYPE
  2
DOT
 70
64
  3
..............
 72
65
 73
4
 40
3.916666231135542
 49
0
 49
-1.958333115567771
 49
0
 49
-1.958333115567771
  0
LTYPE
  2
HIDDEN
 70
64
  3
_ _ _ _ _ _ _
 72
65
 73
2
 40
2.937499673351657
 49
1.958333115567771
 49
-0.9791665577838855
  0
LTYPE
  2
PHANTOM
 70
64
  3
_____ _ _ _____ _ _ 
 72
65
 73
6
 40
19.58333115567771
 49
9.791665577838856
 49
-1.958333115567771
 49
1.958333115567771
 49
-1.958333115567771
 49
1.958333115567771
 49
-1.958333115567771
  0
ENDTAB
  0
TABLE
  2
LAYER
 70
3
  0
LAYER
  2
1
 70
0
 62
7
  6
CONTINUOUS
  0
LAYER
  2
0
 70
0
 62
7
  6
CONTINUOUS
  0
ENDTAB
  0
TABLE
  2
STYLE
 70
4
  0
STYLE
  2
STANDARD
 70
0
 40
0
 41
1
 50
0
 71
0
 42
3.5
  3
txt
  4

  0
STYLE
  2
SIMPLEX
 70
0
 40
0
 41
1
 50
0
 71
0
 42
3.5
  3
simplex
  4

  0
STYLE
  2
COMPLEX
 70
0
 40
0
 41
1
 50
0
 71
0
 42
3.5
  3
complex
  4

  0
STYLE
  2
ITALIC
 70
0
 40
0
 41
1
 50
0
 71
0
 42
3.5
  3
italic
  4

  0
ENDTAB
  0
TABLE
  2
VIEW
 70
0
  0
ENDTAB
  0
ENDSEC
  0
SECTION
  2
BLOCKS
  0
ENDSEC
  0
SECTION
  2
ENTITIES
  0
LINE
  8
1
 62
3
  6
PHANTOM
 10
237.7128365946135
 20
445.3036279632407
 30
0
 11
242.5883516488072
 21
445.3036279632407
 31
0
  0
LINE
  8
1
 62
3
  6
PHANTOM
 10
235.4228219479468
 20
438.3032708294939
 30
0
 11
230.7935450278032
 21
438.3032708294939
 31
0
  0
LINE
  8
1
 62
3
  6
PHANTOM
 10
249.2121574547572
 20
438.3032708294939
 30
0
 11
244.5828805346137
 21
438.3032708294939
 31
0
  0
LINE
  8
1
 62
3
  6
PHANTOM
 10
233.0986966475746
 20
440.7582801745882
 30
0
 11
233.0986966475746
 21
435.7103984265593
 31
0
  0
LINE
  8
1
 62
3
  6
PHANTOM
 10
247.0994109150683
 20
440.5366658539429
 30
0
 11
247.0994109150683
 21
435.7842698667744
 31
0
  0
LINE
  8
1
 62
3
  6
PHANTOM
 10
240.0990537813214
 20
447.5052050475632
 30
0
 11
240.0990537813214
 21
442.9005519408248
 31
0
  0
LINE
  8
1
 62
3
  6
DIVIDE
 10
463.4993688806496
 20
438.8692214003864
 30
0
 11
457.5904467191326
 21
405.3580585722388
 31
0
  0
LINE
  8
1
 62
3
  6
DIVIDE
 10
457.4705814211694
 20
438.8692214003864
 30
0
 11
451.5616592596524
 21
405.3580585722388
 31
0
  0
LINE
  8
1
 62
7
 10
243.8460812136248
 20
433.565655395544
 30
0
 11
243.4840537813215
 21
433.2036279632407
 31
0
  0
LINE
  8
1
 62
7
 10
232.2495300021654
 20
433.565655395544
 30
0
 11
231.8875025698621
 21
433.2036279632407
 31
0
  0
LINE
  8
1
 62
7
 10
249.0789906483979
 20
444.4554190798096
 30
0
 11
249.2914419367466
 21
444.6678703681582
 31
0
  0
LINE
  8
1
 62
7
 10
233.9475440389912
 20
447.2838462045557
 30
0
 11
233.7350927506425
 21
447.4962974929044
 31
0
  0
LINE
  8
1
 62
7
 10
243.8467197216101
 20
440.6367232074096
 30
0
 11
244.5688617644037
 21
439.9145811646159
 31
0
  0
LINE
  8
1
 62
7
 10
248.3722031212041
 20
445.1622066070034
 30
0
 11
243.8467197216101
 21
440.6367232074096
 31
0
  0
LINE
  8
1
 62
7
 10
245.5437759964579
 20
447.9906337317496
 30
0
 11
249.7864166835771
 21
443.7479930446303
 31
0
  0
LINE
  8
1
 62
7
 10
246.957989558831
 20
446.5764201693766
 30
0
 11
242.4325061592371
 21
442.0509367697826
 31
0
  0
LINE
  8
1
 62
7
 10
248.0893604087294
 20
433.565655395544
 30
0
 11
232.1087471539134
 21
433.565655395544
 31
0
  0
LINE
  8
1
 62
7
 10
235.6292457982391
 20
436.6919604943719
 30
0
 11
238.755550897067
 21
433.565655395544
 31
0
  0
LINE
  8
1
 62
7
 10
230.4116908790657
 20
441.9095154135453
 30
0
 11
231.4873863124526
 21
440.8338199801584
 31
0
  0
LINE
  8
1
 62
7
 10
248.0893604087294
 20
433.565655395544
 30
0
 11
249.7864166835771
 21
435.2627116703918
 31
0
  0
LINE
  8
1
 62
7
 10
248.7107212501903
 20
435.7727216788294
 30
0
 11
249.5035739711025
 21
434.9798689579171
 31
0
  0
LINE
  8
1
 62
7
 10
241.7103641164434
 20
442.7730788125762
 30
0
 11
242.4325061592371
 21
442.0509367697826
 31
0
  0
LINE
  8
1
 62
7
 10
234.654331566185
 20
447.9906337317496
 30
0
 11
245.5437759964579
 21
447.9906337317496
 31
0
  0
LINE
  8
1
 62
7
 10
236.4928091972701
 20
447.9906337317496
 30
0
 11
237.5685046306569
 21
446.9149382983628
 31
0
  0
LINE
  8
1
 62
7
 10
230.4116908790657
 20
435.2627116703918
 30
0
 11
232.1087471539134
 21
433.565655395544
 31
0
  0
LINE
  8
1
 62
7
 10
230.4116908790657
 20
443.7479930446303
 30
0
 11
230.4116908790657
 21
435.2627116703918
 31
0
  0
LINE
  8
1
 62
7
 10
234.654331566185
 20
447.9906337317496
 30
0
 11
230.4116908790657
 21
443.7479930446303
 31
0
  0
LINE
  8
1
 62
7
 10
249.7864166835771
 20
435.2627116703918
 30
0
 11
249.7864166835771
 21
443.7479930446303
 31
0
  0
LINE
  8
1
 62
7
 10
247.3266944684407
 20
432.8036279632407
 30
0
 11
245.4023546402206
 21
430.8792881350205
 31
0
  0
LINE
  8
1
 62
7
 10
462.4291373891522
 20
432.7996369998747
 30
0
 11
525.7656873476226
 21
432.7996369998747
 31
0
  0
LINE
  8
1
 62
3
  6
CENTER
 10
356.5359731161059
 20
439.3036279632407
 30
0
 11
364.5359731161059
 21
439.3036279632407
 31
0
  0
LINE
  8
1
 62
3
  6
CENTER
 10
360.5359731161059
 20
435.3036279632407
 30
0
 11
360.5359731161059
 21
443.3036279632407
 31
0
  0
LINE
  8
1
 62
3
  6
CENTER
 10
371.5359731161059
 20
439.3036279632407
 30
0
 11
379.5359731161059
 21
439.3036279632407
 31
0
  0
LINE
  8
1
 62
3
  6
CENTER
 10
375.5359731161059
 20
435.3036279632407
 30
0
 11
375.5359731161059
 21
443.3036279632407
 31
0
  0
LINE
  8
1
 62
7
 10
285.7656873476227
 20
415.3036279632407
 30
0
 11
453.3153314817943
 21
415.3036279632407
 31
0
  0
LINE
  8
1
 62
7
 10
525.7656873476226
 20
415.3036279632407
 30
0
 11
459.3441189412745
 21
415.3036279632407
 31
0
  0
LINE
  8
1
 62
7
 10
525.7656873476226
 20
432.7996369998747
 30
0
 11
525.7656873476226
 21
415.3036279632407
 31
0
  0
LINE
  8
1
 62
7
 10
245.6556843416641
 20
448.3036279632407
 30
0
 11
234.5424232209788
 21
448.3036279632407
 31
0
  0
LINE
  8
1
 62
7
 10
245.6556843416641
 20
448.3036279632407
 30
0
 11
246.4630148120004
 21
447.4962974929044
 31
0
  0
LINE
  8
1
 62
7
 10
246.4630148120004
 20
447.4962974929044
 30
0
 11
246.2505635236517
 21
447.2838462045557
 31
0
  0
LINE
  8
1
 62
7
 10
249.2914419367466
 20
444.6678703681582
 30
0
 11
250.0990537813214
 21
443.8602585235834
 31
0
  0
LINE
  8
1
 62
7
 10
250.0990537813214
 20
434.1617737137484
 30
0
 11
249.1409080308138
 21
433.2036279632407
 31
0
  0
LINE
  8
1
 62
7
 10
249.1409080308138
 20
433.2036279632407
 30
0
 11
248.3106049927808
 21
433.2036279632407
 31
0
  0
LINE
  8
1
 62
7
 10
248.3106049927808
 20
433.2036279632407
 30
0
 11
247.9485775604775
 21
433.565655395544
 31
0
  0
LINE
  8
1
 62
7
 10
243.4840537813215
 20
433.2036279632407
 30
0
 11
236.7140537813214
 21
433.2036279632407
 31
0
  0
LINE
  8
1
 62
7
 10
231.8875025698621
 20
433.2036279632407
 30
0
 11
231.057199531829
 21
433.2036279632407
 31
0
  0
LINE
  8
1
 62
7
 10
231.057199531829
 20
433.2036279632407
 30
0
 11
230.0990537813214
 21
434.1617737137484
 31
0
  0
LINE
  8
1
 62
7
 10
230.0990537813214
 20
443.8602585235834
 30
0
 11
230.9066656258963
 21
444.6678703681582
 31
0
  0
LINE
  8
1
 62
7
 10
230.9066656258963
 20
444.6678703681582
 30
0
 11
231.119116914245
 21
444.4554190798096
 31
0
  0
LINE
  8
1
 62
7
 10
233.7350927506425
 20
447.4962974929044
 30
0
 11
234.5424232209788
 21
448.3036279632407
 31
0
  0
LINE
  8
1
 62
3
  6
CENTER
 10
228.0990537813214
 20
439.3036279632407
 30
0
 11
252.0990537813214
 21
439.3036279632407
 31
0
  0
LINE
  8
1
 62
7
 10
230.0990537813214
 20
443.8602585235834
 30
0
 11
230.0990537813214
 21
434.1617737137484
 31
0
  0
LINE
  8
1
 62
7
 10
250.0990537813214
 20
443.8602585235834
 30
0
 11
250.0990537813214
 21
434.1617737137484
 31
0
  0
LINE
  8
1
 62
7
 10
232.9017161322352
 20
432.8036279632407
 30
0
 11
231.0990537813214
 21
432.8036279632407
 31
0
  0
LINE
  8
1
 62
7
 10
231.0990537813214
 20
415.3036279632407
 30
0
 11
249.0990537813214
 21
415.3036279632407
 31
0
  0
LINE
  8
1
 62
3
  6
CENTER
 10
252.0990537813214
 20
422.3036279632407
 30
0
 11
228.0990537813214
 21
422.3036279632407
 31
0
  0
LINE
  8
1
 62
7
 10
250.0990537813214
 20
416.3036279632407
 30
0
 11
250.0990537813214
 21
431.8036279632407
 31
0
  0
LINE
  8
1
 62
7
 10
230.0990537813214
 20
431.8036279632407
 30
0
 11
230.0990537813214
 21
416.3036279632407
 31
0
  0
LINE
  8
1
 62
7
 10
230.0990537813214
 20
431.8036279632407
 30
0
 11
231.0990537813214
 21
432.8036279632407
 31
0
  0
LINE
  8
1
 62
7
 10
230.0990537813214
 20
416.3036279632407
 30
0
 11
231.0990537813214
 21
415.3036279632407
 31
0
  0
LINE
  8
1
 62
7
 10
250.0990537813214
 20
416.3036279632407
 30
0
 11
249.0990537813214
 21
415.3036279632407
 31
0
  0
LINE
  8
1
 62
7
 10
250.0990537813214
 20
431.8036279632407
 30
0
 11
249.0990537813214
 21
432.8036279632407
 31
0
  0
LINE
  8
1
 62
7
 10
234.7823341575441
 20
430.8658693701424
 30
0
 11
232.9017161322352
 21
432.8036279632407
 31
0
  0
LINE
  8
1
 62
7
 10
236.7140537813214
 20
433.2036279632407
 30
0
 11
236.3520263490181
 21
433.565655395544
 31
0
  0
LINE
  8
1
 62
7
 10
234.7823341575441
 20
430.8658693701424
 30
0
 11
236.7200927506425
 21
432.8036279632407
 31
0
  0
LINE
  8
1
 62
7
 10
243.4780148120004
 20
432.8036279632407
 30
0
 11
236.7200927506425
 21
432.8036279632407
 31
0
  0
LINE
  8
1
 62
7
 10
243.4780148120004
 20
432.8036279632407
 30
0
 11
245.4023546402206
 21
430.8792881350205
 31
0
  0
LINE
  8
1
 62
7
 10
249.0990537813214
 20
432.8036279632407
 30
0
 11
247.3266944684407
 21
432.8036279632407
 31
0
  0
LINE
  8
1
 62
3
  6
CENTER
 10
318.1656873476226
 20
422.3036279632407
 30
0
 11
333.3656873476226
 21
422.3036279632407
 31
0
  0
LINE
  8
1
 62
3
  6
CENTER
 10
325.7656873476227
 20
414.7036279632407
 30
0
 11
325.7656873476227
 21
429.9036279632408
 31
0
  0
LINE
  8
1
 62
3
  6
CENTER
 10
478.1656873476227
 20
422.3036279632407
 30
0
 11
493.3656873476226
 21
422.3036279632407
 31
0
  0
LINE
  8
1
 62
3
  6
CENTER
 10
485.7656873476226
 20
414.7036279632407
 30
0
 11
485.7656873476226
 21
429.9036279632408
 31
0
  0
LINE
  8
1
 62
3
  6
CENTER
 10
386.5359731161059
 20
439.3036279632407
 30
0
 11
394.5359731161059
 21
439.3036279632407
 31
0
  0
LINE
  8
1
 62
3
  6
CENTER
 10
390.5359731161059
 20
435.3036279632407
 30
0
 11
390.5359731161059
 21
443.3036279632407
 31
0
  0
LINE
  8
1
 62
3
  6
CENTER
 10
401.5359731161059
 20
439.3036279632407
 30
0
 11
409.5359731161059
 21
439.3036279632407
 31
0
  0
LINE
  8
1
 62
3
  6
CENTER
 10
405.5359731161059
 20
435.3036279632407
 30
0
 11
405.5359731161059
 21
443.3036279632407
 31
0
  0
LINE
  8
1
 62
7
 10
349.0359731161059
 20
433.2036279632407
 30
0
 11
349.0359731161059
 21
448.3036279632407
 31
0
  0
LINE
  8
1
 62
7
 10
334.0359731161059
 20
448.3036279632407
 30
0
 11
334.0359731161059
 21
433.2036279632407
 31
0
  0
LINE
  8
1
 62
7
 10
432.0359731161059
 20
448.3036279632407
 30
0
 11
432.0359731161061
 21
433.2036279632407
 31
0
  0
LINE
  8
1
 62
7
 10
334.0359731161059
 20
448.3036279632407
 30
0
 11
432.0359731161059
 21
448.3036279632407
 31
0
  0
LINE
  8
1
 62
7
 10
432.0359731161061
 20
433.2036279632407
 30
0
 11
334.0359731161059
 21
433.2036279632407
 31
0
  0
LINE
  8
1
 62
7
 10
337.0359731161059
 20
446.3036279632407
 30
0
 11
349.0359731161059
 21
446.3036279632407
 31
0
  0
LINE
  8
1
 62
7
 10
337.0359731161059
 20
433.2036279632407
 30
0
 11
337.0359731161059
 21
448.3036279632407
 31
0
  0
LINE
  8
1
 62
7
 10
417.0359731161059
 20
446.3036279632407
 30
0
 11
429.0359731161059
 21
446.3036279632407
 31
0
  0
LINE
  8
1
 62
7
 10
417.0359731161059
 20
433.2036279632407
 30
0
 11
417.0359731161059
 21
448.3036279632407
 31
0
  0
LINE
  8
1
 62
7
 10
429.0359731161061
 20
433.2036279632407
 30
0
 11
429.0359731161059
 21
448.3036279632407
 31
0
  0
LINE
  8
1
 62
3
  6
CENTER
 10
395.2874765434846
 20
422.3036279632407
 30
0
 11
415.7756192364307
 21
422.3036279632407
 31
0
  0
LINE
  8
1
 62
3
  6
CENTER
 10
405.7656873476226
 20
430.2030613934929
 30
0
 11
405.7656873476226
 21
412.9310806349045
 31
0
  0
LINE
  8
1
 62
7
 10
349.0359731161059
 20
433.2036279632407
 30
0
 11
349.0359731161059
 21
432.7996369998747
 31
0
  0
LINE
  8
1
 62
7
 10
285.7656873476227
 20
432.7996369998747
 30
0
 11
456.400349929672
 21
432.7996369998747
 31
0
  0
LINE
  8
1
 62
7
 10
285.7656873476227
 20
415.3036279632407
 30
0
 11
285.7656873476227
 21
432.7996369998747
 31
0
  0
LINE
  8
1
 62
7
 10
250.0990537813214
 20
416.3036279632407
 30
0
 11
249.0990537813214
 21
415.3036279632407
 31
0
  0
ARC
  8
1
 62
7
 10
233.0986966475746
 20
438.3032708294939
 30
0
 40
2.999999999999961
 50
327.5133253628823
 51
122.4866746371182
  0
ARC
  8
1
 62
7
 10
247.0994109150683
 20
438.3032708294939
 30
0
 40
3.000000000000063
 50
147.5133253628822
 51
302.4866746371182
  0
ARC
  8
1
 62
7
 10
240.0990537813214
 20
445.3036279632407
 30
0
 40
3.000000000000052
 50
147.5133253628795
 51
302.4866746371188
  0
CIRCLE
  8
1
 62
7
 10
233.0986966475746
 20
438.3032708294939
 30
0
 40
1.649999999999989
  0
CIRCLE
  8
1
 62
7
 10
247.0994109150683
 20
438.3032708294939
 30
0
 40
1.649999999999989
  0
CIRCLE
  8
1
 62
7
 10
240.0990537813214
 20
445.3036279632407
 30
0
 40
1.650000000000069
  0
CIRCLE
  8
1
 62
7
 10
485.7656873476226
 20
422.3036279632407
 30
0
 40
2.75
  0
CIRCLE
  8
1
 62
7
 10
485.7656873476226
 20
422.3036279632407
 30
0
 40
4.75
  0
CIRCLE
  8
1
 62
7
 10
405.7656873476226
 20
422.3036279632407
 30
0
 40
2.75
  0
CIRCLE
  8
1
 62
7
 10
405.7656873476226
 20
422.3036279632407
 30
0
 40
4.75
  0
CIRCLE
  8
1
 62
7
 10
325.7656873476227
 20
422.3036279632407
 30
0
 40
4.749999999999886
  0
CIRCLE
  8
1
 62
7
 10
325.7656873476227
 20
422.3036279632407
 30
0
 40
2.75
  0
CIRCLE
  8
1
 62
7
 10
360.5359731161059
 20
439.3036279632407
 30
0
 40
2
  0
CIRCLE
  8
1
 62
3
 10
360.5359731161059
 20
439.3036279632407
 30
0
 40
2.5
  0
CIRCLE
  8
1
 62
7
 10
375.5359731161059
 20
439.3036279632407
 30
0
 40
2
  0
CIRCLE
  8
1
 62
3
 10
375.5359731161059
 20
439.3036279632407
 30
0
 40
2.5
  0
CIRCLE
  8
1
 62
7
 10
390.5359731161059
 20
439.3036279632407
 30
0
 40
2
  0
CIRCLE
  8
1
 62
3
 10
390.5359731161059
 20
439.3036279632407
 30
0
 40
2.5
  0
CIRCLE
  8
1
 62
7
 10
405.5359731161059
 20
439.3036279632407
 30
0
 40
2
  0
CIRCLE
  8
1
 62
3
 10
405.5359731161059
 20
439.3036279632407
 30
0
 40
2.5
  0
TEXT
  8
1
 62
2
 10
237.4784864621624
 20
484.7692512016261
 30
0
 40
4
  1
MODEL : TGH3M
 41
0.9
  7
COMPLEX
  0
TEXT
  8
1
 62
2
 10
462.893188685326
 20
370.1990695720722
 30
0
 40
4
  1
UNION TOOL CO.
 41
0.9
  7
COMPLEX
  0
ENDSEC
  0
EOF
