  0
SECTION
  2
HEADER
  9
$ACADVER
  1
AC1009
  9
$INSBASE
 10
0
 20
0
  9
$EXTMIN
 10
228.054690782838
 20
385.0540167669552
  9
$EXTMAX
 10
529.7885775210336
 20
487.932841776166
  9
$LIMMIN
 10
228.054690782838
 20
385.0540167669552
  9
$LIMMAX
 10
529.7885775210336
 20
487.932841776166
  9
$VIEWCTR
 10
10
 20
10
  9
$VIEWSIZE
 40
10
  9
$SNAPMODE
 70
0
  9
$SNAPUNIT
 10
1
 20
1
  9
$SNAPBASE
 10
0
 20
0
  9
$SNAPANG
 50
0
  9
$SNAPSTYLE
 70
0
  9
$SNAPISOPAIR
 70
0
  9
$GRIDMODE
 70
0
  9
$GRIDUNIT
 10
0
 20
0
  9
$ORTHOMODE
 70
0
  9
$REGENMODE
 70
1
  9
$FILLMODE
 70
1
  9
$QTEXTMODE
 70
0
  9
$DRAGMODE
 70
2
  9
$LTSCALE
 40
1
  9
$OSMODE
 70
0
  9
$ATTMODE
 70
1
  9
$TEXTSIZE
 40
3.5
  9
$TRACEWID
 40
0.5
  9
$TEXTSTYLE
  7
STANDARD
  9
$CLAYER
  8
0
  9
$CELTYPE
  6
BYLAYER
  9
$CECOLOR
 62
256
  9
$DIMSCALE
 40
1
  9
$DIMASZ
 40
0.18
  9
$DIMEXO
 40
0.0625
  9
$DIMDLI
 40
0.38
  9
$DIMRND
 40
0
  9
$DIMDLE
 40
0
  9
$DIMEXE
 40
0.18
  9
$DIMTP
 40
0
  9
$DIMTM
 40
0
  9
$DIMTXT
 40
0.18
  9
$DIMCEN
 40
0.09
  9
$DIMTSZ
 40
0
  9
$DIMTOL
 70
0
  9
$DIMLIM
 70
0
  9
$DIMTIH
 70
1
  9
$DIMTOH
 70
1
  9
$DIMSE1
 70
0
  9
$DIMSE2
 70
0
  9
$DIMTAD
 70
0
  9
$DIMZIN
 70
0
  9
$DIMBLK
  1

  9
$DIMASO
 70
1
  9
$DIMSHO
 70
1
  9
$DIMPOST
  1

  9
$DIMAPOST
  1

  9
$DIMALT
 70
0
  9
$DIMALTD
 70
2
  9
$DIMALTF
 40
25.4
  9
$DIMLFAC
 40
1
  9
$DIMTOFL
 70
0
  9
$DIMTVP
 40
0
  9
$DIMTIX
 70
0
  9
$DIMSOXD
 70
0
  9
$DIMSAH
 70
0
  9
$DIMBLK1
  1

  9
$DIMBLK2
  1

  9
$DIMSTYLE
  2
*UNNAMED
  9
$DIMCLRD
 70
0
  9
$DIMCLRE
 70
0
  9
$DIMCLRT
 70
0
  9
$DIMTFAC
 40
1
  9
$DIMGAP
 40
0.09
  9
$LUNITS
 70
2
  9
$LUPREC
 70
4
  9
$AXISMODE
 70
0
  9
$AXISUNIT
 10
0
 20
0
  9
$SKETCHINC
 40
0.1
  9
$FILLETRAD
 40
2
  9
$AUNITS
 70
0
  9
$AUPREC
 70
0
  9
$MENU
  1
ACAD
  9
$ELEVATION
 40
0
  9
$THICKNESS
 40
0
  9
$VIEWDIR
 10
0
 20
0
 30
1
  9
$LIMCHECK
 70
0
  9
$BLIPMODE
 70
1
  9
$CHAMFERA
 40
0
  9
$CHAMFERB
 40
0
  9
$FASTZOOM
 70
1
  9
$SKPOLY
 70
0
  9
$ANGBASE
 50
0
  9
$ANGDIR
 70
0
  9
$PDMODE
 70
0
  9
$PDSIZE
 40
0
  9
$PLINEWID
 40
0
  9
$COORDS
 70
2
  0
ENDSEC
  0
SECTION
  2
TABLES
  0
TABLE
  2
DIMSTYLE
 70
0
  0
ENDTAB
  0
TABLE
  2
LTYPE
 70
9
  0
LTYPE
  2
CONTINUOUS
 70
64
  3
Solid line
 72
65
 73
0
 40
0
  0
LTYPE
  2
BORDER
 70
64
  3
__ __ . __ __ .
 72
65
 73
6
 40
13.89563952083796
 49
3.970182720239416
 49
-1.985091360119708
 49
3.970182720239416
 49
-1.985091360119708
 49
0
 49
-1.985091360119708
  0
LTYPE
  2
CENTER
 70
64
  3
____ _ ____ _
 72
65
 73
4
 40
15.88073088095766
 49
9.925456800598539
 49
-1.985091360119708
 49
1.985091360119708
 49
-1.985091360119708
  0
LTYPE
  2
DASHDOT
 70
64
  3
__ . __ . __ .
 72
65
 73
4
 40
7.940365440478832
 49
3.970182720239416
 49
-1.985091360119708
 49
0
 49
-1.985091360119708
  0
LTYPE
  2
DASHED
 70
64
  3
__ __ __ __ __
 72
65
 73
2
 40
5.955274080359124
 49
3.970182720239416
 49
-1.985091360119708
  0
LTYPE
  2
DIVIDE
 70
64
  3
__ . . __ . . 
 72
65
 73
6
 40
9.925456800598539
 49
3.970182720239416
 49
-1.985091360119708
 49
0
 49
-1.985091360119708
 49
0
 49
-1.985091360119708
  0
LTYPE
  2
DOT
 70
64
  3
..............
 72
65
 73
4
 40
3.970182720239416
 49
0
 49
-1.985091360119708
 49
0
 49
-1.985091360119708
  0
LTYPE
  2
HIDDEN
 70
64
  3
_ _ _ _ _ _ _
 72
65
 73
2
 40
2.977637040179562
 49
1.985091360119708
 49
-0.992545680059854
  0
LTYPE
  2
PHANTOM
 70
64
  3
_____ _ _ _____ _ _ 
 72
65
 73
6
 40
19.85091360119708
 49
9.925456800598539
 49
-1.985091360119708
 49
1.985091360119708
 49
-1.985091360119708
 49
1.985091360119708
 49
-1.985091360119708
  0
ENDTAB
  0
TABLE
  2
LAYER
 70
3
  0
LAYER
  2
1
 70
0
 62
7
  6
CONTINUOUS
  0
LAYER
  2
0
 70
0
 62
7
  6
CONTINUOUS
  0
ENDTAB
  0
TABLE
  2
STYLE
 70
4
  0
STYLE
  2
STANDARD
 70
0
 40
0
 41
1
 50
0
 71
0
 42
3.5
  3
txt
  4

  0
STYLE
  2
SIMPLEX
 70
0
 40
0
 41
1
 50
0
 71
0
 42
3.5
  3
simplex
  4

  0
STYLE
  2
COMPLEX
 70
0
 40
0
 41
1
 50
0
 71
0
 42
3.5
  3
complex
  4

  0
STYLE
  2
ITALIC
 70
0
 40
0
 41
1
 50
0
 71
0
 42
3.5
  3
italic
  4

  0
ENDTAB
  0
TABLE
  2
VIEW
 70
0
  0
ENDTAB
  0
ENDSEC
  0
SECTION
  2
BLOCKS
  0
ENDSEC
  0
SECTION
  2
ENTITIES
  0
LINE
  8
1
 62
3
  6
PHANTOM
 10
240.054690782838
 20
451.608414264168
 30
0
 11
240.054690782838
 21
447.0131240157942
 31
0
  0
LINE
  8
1
 62
3
  6
PHANTOM
 10
233.0543336490912
 20
444.7682983197497
 30
0
 11
233.0543336490912
 21
439.8032720743804
 31
0
  0
LINE
  8
1
 62
3
  6
PHANTOM
 10
247.0550479165848
 20
444.3985623227541
 30
0
 11
247.0550479165848
 21
440.0673692150915
 31
0
  0
LINE
  8
1
 62
3
  6
PHANTOM
 10
244.9730075448946
 20
442.3312477081067
 30
0
 11
249.3042006525573
 21
442.3312477081067
 31
0
  0
LINE
  8
1
 62
3
  6
PHANTOM
 10
230.6853522324225
 20
442.3312477081067
 30
0
 11
235.3070521948673
 21
442.3312477081067
 31
0
  0
LINE
  8
1
 62
3
  6
PHANTOM
 10
237.6839264612675
 20
449.3316048418535
 30
0
 11
242.3848555659255
 21
449.3316048418535
 31
0
  0
LINE
  8
1
 62
7
 10
243.8017182151414
 20
437.5936322741568
 30
0
 11
243.439690782838
 21
437.2316048418535
 31
0
  0
LINE
  8
1
 62
7
 10
232.205167003682
 20
437.5936322741568
 30
0
 11
231.8431395713787
 21
437.2316048418535
 31
0
  0
LINE
  8
1
 62
7
 10
249.0346276499145
 20
448.4833959584223
 30
0
 11
249.2470789382632
 21
448.6958472467709
 31
0
  0
LINE
  8
1
 62
7
 10
233.9031810405078
 20
451.3118230831685
 30
0
 11
233.6907297521591
 21
451.5242743715172
 31
0
  0
LINE
  8
1
 62
7
 10
243.8023567231267
 20
444.6647000860223
 30
0
 11
244.5244987659203
 21
443.9425580432286
 31
0
  0
LINE
  8
1
 62
7
 10
248.3278401227206
 20
449.1901834856162
 30
0
 11
243.8023567231267
 21
444.6647000860223
 31
0
  0
LINE
  8
1
 62
7
 10
245.4994129979745
 20
452.0186106103623
 30
0
 11
249.7420536850937
 21
447.7759699232431
 31
0
  0
LINE
  8
1
 62
7
 10
246.9136265603476
 20
450.6043970479892
 30
0
 11
242.3881431607536
 21
446.0789136483953
 31
0
  0
LINE
  8
1
 62
7
 10
248.044997410246
 20
437.5936322741568
 30
0
 11
232.0643841554301
 21
437.5936322741568
 31
0
  0
LINE
  8
1
 62
7
 10
235.5848827997558
 20
440.7199373729847
 30
0
 11
238.7111878985836
 21
437.5936322741568
 31
0
  0
LINE
  8
1
 62
7
 10
230.3673278805823
 20
445.937492292158
 30
0
 11
231.4430233139692
 21
444.8617968587712
 31
0
  0
LINE
  8
1
 62
7
 10
248.044997410246
 20
437.5936322741568
 30
0
 11
249.7420536850937
 21
439.2906885490045
 31
0
  0
LINE
  8
1
 62
7
 10
248.6663582517069
 20
439.8006985574421
 30
0
 11
249.4592109726191
 21
439.0078458365299
 31
0
  0
LINE
  8
1
 62
7
 10
241.66600111796
 20
446.8010556911889
 30
0
 11
242.3881431607536
 21
446.0789136483953
 31
0
  0
LINE
  8
1
 62
7
 10
234.6099685677016
 20
452.0186106103623
 30
0
 11
245.4994129979745
 21
452.0186106103623
 31
0
  0
LINE
  8
1
 62
7
 10
236.4484461987866
 20
452.0186106103623
 30
0
 11
237.5241416321735
 21
450.9429151769755
 31
0
  0
LINE
  8
1
 62
7
 10
230.3673278805823
 20
439.2906885490045
 30
0
 11
232.0643841554301
 21
437.5936322741568
 31
0
  0
LINE
  8
1
 62
7
 10
230.3673278805823
 20
447.7759699232431
 30
0
 11
230.3673278805823
 21
439.2906885490045
 31
0
  0
LINE
  8
1
 62
7
 10
234.6099685677016
 20
452.0186106103623
 30
0
 11
230.3673278805823
 21
447.7759699232431
 31
0
  0
LINE
  8
1
 62
7
 10
249.7420536850937
 20
439.2906885490045
 30
0
 11
249.7420536850937
 21
447.7759699232431
 31
0
  0
LINE
  8
1
 62
7
 10
247.2823314699573
 20
436.8316048418535
 30
0
 11
245.3579916417372
 21
434.9072650136333
 31
0
  0
LINE
  8
1
 62
7
 10
245.6113213431807
 20
452.3316048418535
 30
0
 11
234.4980602224954
 21
452.3316048418535
 31
0
  0
LINE
  8
1
 62
7
 10
245.6113213431807
 20
452.3316048418535
 30
0
 11
246.418651813517
 21
451.5242743715172
 31
0
  0
LINE
  8
1
 62
7
 10
246.418651813517
 20
451.5242743715172
 30
0
 11
246.2062005251683
 21
451.3118230831685
 31
0
  0
LINE
  8
1
 62
7
 10
249.2470789382632
 20
448.6958472467709
 30
0
 11
250.054690782838
 21
447.8882354021961
 31
0
  0
LINE
  8
1
 62
7
 10
250.054690782838
 20
438.1897505923611
 30
0
 11
249.0965450323304
 21
437.2316048418535
 31
0
  0
LINE
  8
1
 62
7
 10
249.0965450323304
 20
437.2316048418535
 30
0
 11
248.2662419942974
 21
437.2316048418535
 31
0
  0
LINE
  8
1
 62
7
 10
248.2662419942974
 20
437.2316048418535
 30
0
 11
247.9042145619941
 21
437.5936322741568
 31
0
  0
LINE
  8
1
 62
7
 10
243.439690782838
 20
437.2316048418535
 30
0
 11
236.6696907828381
 21
437.2316048418535
 31
0
  0
LINE
  8
1
 62
7
 10
231.8431395713787
 20
437.2316048418535
 30
0
 11
231.0128365333457
 21
437.2316048418535
 31
0
  0
LINE
  8
1
 62
7
 10
231.0128365333457
 20
437.2316048418535
 30
0
 11
230.054690782838
 21
438.1897505923611
 31
0
  0
LINE
  8
1
 62
7
 10
230.054690782838
 20
447.8882354021961
 30
0
 11
230.8623026274129
 21
448.6958472467709
 31
0
  0
LINE
  8
1
 62
7
 10
230.8623026274129
 20
448.6958472467709
 30
0
 11
231.0747539157616
 21
448.4833959584223
 31
0
  0
LINE
  8
1
 62
7
 10
233.6907297521591
 20
451.5242743715172
 30
0
 11
234.4980602224954
 21
452.3316048418535
 31
0
  0
LINE
  8
1
 62
3
  6
CENTER
 10
228.054690782838
 20
443.3316048418535
 30
0
 11
252.054690782838
 21
443.3316048418535
 31
0
  0
LINE
  8
1
 62
7
 10
230.054690782838
 20
447.8882354021961
 30
0
 11
230.054690782838
 21
438.1897505923611
 31
0
  0
LINE
  8
1
 62
7
 10
250.054690782838
 20
447.8882354021961
 30
0
 11
250.054690782838
 21
438.1897505923611
 31
0
  0
LINE
  8
1
 62
7
 10
232.8573531337517
 20
436.8316048418535
 30
0
 11
231.054690782838
 21
436.8316048418535
 31
0
  0
LINE
  8
1
 62
7
 10
231.054690782838
 20
419.3316048418535
 30
0
 11
249.054690782838
 21
419.3316048418535
 31
0
  0
LINE
  8
1
 62
3
  6
CENTER
 10
252.054690782838
 20
426.3316048418535
 30
0
 11
228.054690782838
 21
426.3316048418535
 31
0
  0
LINE
  8
1
 62
7
 10
250.054690782838
 20
420.3316048418535
 30
0
 11
250.054690782838
 21
435.8316048418535
 31
0
  0
LINE
  8
1
 62
7
 10
230.054690782838
 20
435.8316048418535
 30
0
 11
230.054690782838
 21
420.3316048418535
 31
0
  0
LINE
  8
1
 62
7
 10
230.054690782838
 20
435.8316048418535
 30
0
 11
231.054690782838
 21
436.8316048418535
 31
0
  0
LINE
  8
1
 62
7
 10
230.054690782838
 20
420.3316048418535
 30
0
 11
231.054690782838
 21
419.3316048418535
 31
0
  0
LINE
  8
1
 62
7
 10
250.054690782838
 20
420.3316048418535
 30
0
 11
249.054690782838
 21
419.3316048418535
 31
0
  0
LINE
  8
1
 62
7
 10
250.054690782838
 20
435.8316048418535
 30
0
 11
249.054690782838
 21
436.8316048418535
 31
0
  0
LINE
  8
1
 62
7
 10
234.7379711590608
 20
434.8938462487551
 30
0
 11
232.8573531337517
 21
436.8316048418535
 31
0
  0
LINE
  8
1
 62
7
 10
236.6696907828381
 20
437.2316048418535
 30
0
 11
236.3076633505347
 21
437.5936322741568
 31
0
  0
LINE
  8
1
 62
7
 10
234.7379711590608
 20
434.8938462487551
 30
0
 11
236.6757297521591
 21
436.8316048418535
 31
0
  0
LINE
  8
1
 62
7
 10
243.433651813517
 20
436.8316048418535
 30
0
 11
236.6757297521591
 21
436.8316048418535
 31
0
  0
LINE
  8
1
 62
7
 10
243.433651813517
 20
436.8316048418535
 30
0
 11
245.3579916417372
 21
434.9072650136333
 31
0
  0
LINE
  8
1
 62
7
 10
249.054690782838
 20
436.8316048418535
 30
0
 11
247.2823314699573
 21
436.8316048418535
 31
0
  0
LINE
  8
1
 62
7
 10
250.054690782838
 20
420.3316048418535
 30
0
 11
249.054690782838
 21
419.3316048418535
 31
0
  0
LINE
  8
1
 62
3
  6
CENTER
 10
409.7885775210336
 20
434.2310382721056
 30
0
 11
409.7885775210336
 21
416.9590575135172
 31
0
  0
LINE
  8
1
 62
3
  6
CENTER
 10
399.3103667168956
 20
426.3316048418535
 30
0
 11
419.7985094098416
 21
426.3316048418535
 31
0
  0
LINE
  8
1
 62
7
 10
436.1961011416015
 20
450.3316048418535
 30
0
 11
448.1961011416015
 21
450.3316048418535
 31
0
  0
LINE
  8
1
 62
7
 10
337.1961011416015
 20
452.3316048418535
 30
0
 11
337.1961011416015
 21
437.2316048418534
 31
0
  0
LINE
  8
1
 62
7
 10
325.1961011416016
 20
450.3316048418535
 30
0
 11
337.1961011416015
 21
450.3316048418535
 31
0
  0
LINE
  8
1
 62
7
 10
448.1961011416015
 20
452.3316048418535
 30
0
 11
448.1961011416016
 21
437.2316048418534
 31
0
  0
LINE
  8
1
 62
7
 10
325.1961011416016
 20
452.3316048418535
 30
0
 11
325.1961011416016
 21
437.2316048418534
 31
0
  0
LINE
  8
1
 62
7
 10
322.1961011416016
 20
452.3316048418535
 30
0
 11
451.1961011416015
 21
452.3316048418535
 31
0
  0
LINE
  8
1
 62
7
 10
451.1961011416015
 20
452.3316048418535
 30
0
 11
451.1961011416016
 21
437.2316048418534
 31
0
  0
LINE
  8
1
 62
7
 10
322.1961011416016
 20
437.2316048418534
 30
0
 11
451.1961011416016
 21
437.2316048418534
 31
0
  0
LINE
  8
1
 62
7
 10
322.1961011416016
 20
452.3316048418535
 30
0
 11
322.1961011416016
 21
437.2316048418534
 31
0
  0
LINE
  8
1
 62
7
 10
436.1961011416015
 20
452.3316048418535
 30
0
 11
436.1961011416016
 21
437.2316048418534
 31
0
  0
LINE
  8
1
 62
3
  6
CENTER
 10
424.1961011416015
 20
439.3316048418535
 30
0
 11
424.1961011416015
 21
447.3316048418535
 31
0
  0
LINE
  8
1
 62
3
  6
CENTER
 10
420.1961011416015
 20
443.3316048418535
 30
0
 11
428.1961011416015
 21
443.3316048418535
 31
0
  0
LINE
  8
1
 62
3
  6
CENTER
 10
409.1961011416015
 20
439.3316048418535
 30
0
 11
409.1961011416015
 21
447.3316048418535
 31
0
  0
LINE
  8
1
 62
3
  6
CENTER
 10
405.1961011416015
 20
443.3316048418535
 30
0
 11
413.1961011416015
 21
443.3316048418535
 31
0
  0
LINE
  8
1
 62
3
  6
CENTER
 10
394.1961011416015
 20
439.3316048418535
 30
0
 11
394.1961011416015
 21
447.3316048418535
 31
0
  0
LINE
  8
1
 62
3
  6
CENTER
 10
390.1961011416015
 20
443.3316048418535
 30
0
 11
398.1961011416015
 21
443.3316048418535
 31
0
  0
LINE
  8
1
 62
3
  6
CENTER
 10
379.1961011416015
 20
439.3316048418535
 30
0
 11
379.1961011416015
 21
447.3316048418535
 31
0
  0
LINE
  8
1
 62
3
  6
CENTER
 10
375.1961011416015
 20
443.3316048418535
 30
0
 11
383.1961011416015
 21
443.3316048418535
 31
0
  0
LINE
  8
1
 62
3
  6
CENTER
 10
489.7885775210336
 20
418.7316048418534
 30
0
 11
489.7885775210336
 21
433.9316048418535
 31
0
  0
LINE
  8
1
 62
3
  6
CENTER
 10
482.1885775210337
 20
426.3316048418535
 30
0
 11
497.3885775210337
 21
426.3316048418535
 31
0
  0
LINE
  8
1
 62
3
  6
CENTER
 10
329.7885775210336
 20
418.7316048418534
 30
0
 11
329.7885775210336
 21
433.9316048418535
 31
0
  0
LINE
  8
1
 62
3
  6
CENTER
 10
322.1885775210336
 20
426.3316048418535
 30
0
 11
337.3885775210337
 21
426.3316048418535
 31
0
  0
LINE
  8
1
 62
7
 10
529.7885775210336
 20
436.8276138784874
 30
0
 11
471.801244025483
 21
436.8276138784874
 31
0
  0
LINE
  8
1
 62
7
 10
529.7885775210336
 20
436.8276138784874
 30
0
 11
529.7885775210336
 21
419.3316048418535
 31
0
  0
LINE
  8
1
 62
7
 10
289.7885775210336
 20
436.8276138784874
 30
0
 11
289.7885775210336
 21
419.3316048418535
 31
0
  0
LINE
  8
1
 62
7
 10
289.7885775210336
 20
419.3316048418535
 30
0
 11
465.7649529728244
 21
419.3316048418535
 31
0
  0
LINE
  8
1
 62
3
  6
CENTER
 10
364.1961011416015
 20
439.3316048418535
 30
0
 11
364.1961011416015
 21
447.3316048418535
 31
0
  0
LINE
  8
1
 62
3
  6
CENTER
 10
360.1961011416015
 20
443.3316048418535
 30
0
 11
368.1961011416015
 21
443.3316048418535
 31
0
  0
LINE
  8
1
 62
3
  6
CENTER
 10
349.1961011416015
 20
439.3316048418535
 30
0
 11
349.1961011416015
 21
447.3316048418535
 31
0
  0
LINE
  8
1
 62
3
  6
CENTER
 10
345.1961011416015
 20
443.3316048418535
 30
0
 11
353.1961011416015
 21
443.3316048418535
 31
0
  0
LINE
  8
1
 62
6
  6
DIVIDE
 10
469.4967443409395
 20
440.4956453824517
 30
0
 11
465.1063205566842
 21
415.596314794387
 31
0
  0
LINE
  8
1
 62
6
  6
DIVIDE
 10
472.4480169457207
 20
440.4956453824517
 30
0
 11
468.0575931614653
 21
415.596314794387
 31
0
  0
LINE
  8
1
 62
7
 10
468.8499714207021
 20
436.8276138784874
 30
0
 11
289.7885775210336
 21
436.8276138784874
 31
0
  0
LINE
  8
1
 62
7
 10
468.7162255776054
 20
419.3316048418535
 30
0
 11
529.7885775210336
 21
419.3316048418535
 31
0
  0
ARC
  8
1
 62
7
 10
233.0543336490912
 20
442.3312477081067
 30
0
 40
3.000000000000032
 50
327.5133253628831
 51
122.4866746371182
  0
ARC
  8
1
 62
7
 10
247.0550479165848
 20
442.3312477081067
 30
0
 40
2.99999999999993
 50
147.5133253628832
 51
302.486674637119
  0
ARC
  8
1
 62
7
 10
240.054690782838
 20
449.3316048418535
 30
0
 40
2.999999999999961
 50
147.5133253628823
 51
302.486674637117
  0
CIRCLE
  8
1
 62
7
 10
233.0543336490912
 20
442.3312477081067
 30
0
 40
1.650000000000029
  0
CIRCLE
  8
1
 62
7
 10
247.0550479165848
 20
442.3312477081067
 30
0
 40
1.65000000000009
  0
CIRCLE
  8
1
 62
7
 10
240.054690782838
 20
449.3316048418535
 30
0
 40
1.649999999999989
  0
CIRCLE
  8
1
 62
3
 10
424.1961011416015
 20
443.3316048418535
 30
0
 40
2.5
  0
CIRCLE
  8
1
 62
7
 10
424.1961011416015
 20
443.3316048418535
 30
0
 40
2
  0
CIRCLE
  8
1
 62
3
 10
409.1961011416015
 20
443.3316048418535
 30
0
 40
2.5
  0
CIRCLE
  8
1
 62
7
 10
409.1961011416015
 20
443.3316048418535
 30
0
 40
2
  0
CIRCLE
  8
1
 62
3
 10
394.1961011416015
 20
443.3316048418535
 30
0
 40
2.5
  0
CIRCLE
  8
1
 62
7
 10
394.1961011416015
 20
443.3316048418535
 30
0
 40
2
  0
CIRCLE
  8
1
 62
3
 10
379.1961011416015
 20
443.3316048418535
 30
0
 40
2.5
  0
CIRCLE
  8
1
 62
7
 10
379.1961011416015
 20
443.3316048418535
 30
0
 40
2
  0
CIRCLE
  8
1
 62
3
 10
364.1961011416015
 20
443.3316048418535
 30
0
 40
2.5
  0
CIRCLE
  8
1
 62
7
 10
364.1961011416015
 20
443.3316048418535
 30
0
 40
2
  0
CIRCLE
  8
1
 62
3
 10
349.1961011416015
 20
443.3316048418535
 30
0
 40
2.5
  0
CIRCLE
  8
1
 62
7
 10
349.1961011416015
 20
443.3316048418535
 30
0
 40
2
  0
CIRCLE
  8
1
 62
7
 10
329.7885775210336
 20
426.3316048418535
 30
0
 40
4.75
  0
CIRCLE
  8
1
 62
7
 10
329.7885775210336
 20
426.3316048418535
 30
0
 40
2.75
  0
CIRCLE
  8
1
 62
7
 10
409.7885775210336
 20
426.3316048418535
 30
0
 40
4.75
  0
CIRCLE
  8
1
 62
7
 10
409.7885775210336
 20
426.3316048418535
 30
0
 40
2.75
  0
CIRCLE
  8
1
 62
7
 10
489.7885775210336
 20
426.3316048418535
 30
0
 40
4.75
  0
CIRCLE
  8
1
 62
7
 10
489.7885775210336
 20
426.3316048418535
 30
0
 40
2.75
  0
TEXT
  8
1
 62
2
 10
231.6585060513278
 20
483.932841776166
 30
0
 40
4
  1
MODEL : TGH3L
 41
0.9
  7
COMPLEX
  0
TEXT
  8
1
 62
2
 10
462.5767376277161
 20
385.0540167669552
 30
0
 40
4
  1
UNION TOOL CO.
 41
0.9
  7
COMPLEX
  0
ENDSEC
  0
EOF
