  0
SECTION
  2
HEADER
  9
$ACADVER
  1
AC1009
  9
$INSBASE
 10
0
 20
0
  9
$EXTMIN
 10
-370.330128423475
 20
9.565087824649002
  9
$EXTMAX
 10
-193.7604827667366
 20
92.7865679539421
  9
$LIMMIN
 10
-370.330128423475
 20
9.565087824649002
  9
$LIMMAX
 10
-193.7604827667366
 20
92.7865679539421
  9
$VIEWCTR
 10
10
 20
10
  9
$VIEWSIZE
 40
10
  9
$SNAPMODE
 70
0
  9
$SNAPUNIT
 10
1
 20
1
  9
$SNAPBASE
 10
0
 20
0
  9
$SNAPANG
 50
0
  9
$SNAPSTYLE
 70
0
  9
$SNAPISOPAIR
 70
0
  9
$GRIDMODE
 70
0
  9
$GRIDUNIT
 10
0
 20
0
  9
$ORTHOMODE
 70
0
  9
$REGENMODE
 70
1
  9
$FILLMODE
 70
1
  9
$QTEXTMODE
 70
0
  9
$DRAGMODE
 70
2
  9
$LTSCALE
 40
1
  9
$OSMODE
 70
0
  9
$ATTMODE
 70
1
  9
$TEXTSIZE
 40
3.5
  9
$TRACEWID
 40
0.5
  9
$TEXTSTYLE
  7
STANDARD
  9
$CLAYER
  8
0
  9
$CELTYPE
  6
BYLAYER
  9
$CECOLOR
 62
256
  9
$DIMSCALE
 40
1
  9
$DIMASZ
 40
0.18
  9
$DIMEXO
 40
0.0625
  9
$DIMDLI
 40
0.38
  9
$DIMRND
 40
0
  9
$DIMDLE
 40
0
  9
$DIMEXE
 40
0.18
  9
$DIMTP
 40
0
  9
$DIMTM
 40
0
  9
$DIMTXT
 40
0.18
  9
$DIMCEN
 40
0.09
  9
$DIMTSZ
 40
0
  9
$DIMTOL
 70
0
  9
$DIMLIM
 70
0
  9
$DIMTIH
 70
1
  9
$DIMTOH
 70
1
  9
$DIMSE1
 70
0
  9
$DIMSE2
 70
0
  9
$DIMTAD
 70
0
  9
$DIMZIN
 70
0
  9
$DIMBLK
  1

  9
$DIMASO
 70
1
  9
$DIMSHO
 70
1
  9
$DIMPOST
  1

  9
$DIMAPOST
  1

  9
$DIMALT
 70
0
  9
$DIMALTD
 70
2
  9
$DIMALTF
 40
25.4
  9
$DIMLFAC
 40
1
  9
$DIMTOFL
 70
0
  9
$DIMTVP
 40
0
  9
$DIMTIX
 70
0
  9
$DIMSOXD
 70
0
  9
$DIMSAH
 70
0
  9
$DIMBLK1
  1

  9
$DIMBLK2
  1

  9
$DIMSTYLE
  2
*UNNAMED
  9
$DIMCLRD
 70
0
  9
$DIMCLRE
 70
0
  9
$DIMCLRT
 70
0
  9
$DIMTFAC
 40
1
  9
$DIMGAP
 40
0.09
  9
$LUNITS
 70
2
  9
$LUPREC
 70
4
  9
$AXISMODE
 70
0
  9
$AXISUNIT
 10
0
 20
0
  9
$SKETCHINC
 40
0.1
  9
$FILLETRAD
 40
2
  9
$AUNITS
 70
0
  9
$AUPREC
 70
0
  9
$MENU
  1
ACAD
  9
$ELEVATION
 40
0
  9
$THICKNESS
 40
0
  9
$VIEWDIR
 10
0
 20
0
 30
1
  9
$LIMCHECK
 70
0
  9
$BLIPMODE
 70
1
  9
$CHAMFERA
 40
0
  9
$CHAMFERB
 40
0
  9
$FASTZOOM
 70
1
  9
$SKPOLY
 70
0
  9
$ANGBASE
 50
0
  9
$ANGDIR
 70
0
  9
$PDMODE
 70
0
  9
$PDSIZE
 40
0
  9
$PLINEWID
 40
0
  9
$COORDS
 70
2
  0
ENDSEC
  0
SECTION
  2
TABLES
  0
TABLE
  2
DIMSTYLE
 70
0
  0
ENDTAB
  0
TABLE
  2
LTYPE
 70
9
  0
LTYPE
  2
CONTINUOUS
 70
64
  3
Solid line
 72
65
 73
0
 40
0
  0
LTYPE
  2
BORDER
 70
64
  3
__ __ . __ __ .
 72
65
 73
6
 40
8.131496839455059
 49
2.323284811272874
 49
-1.161642405636437
 49
2.323284811272874
 49
-1.161642405636437
 49
0
 49
-1.161642405636437
  0
LTYPE
  2
CENTER
 70
64
  3
____ _ ____ _
 72
65
 73
4
 40
9.293139245091496
 49
5.808212028182185
 49
-1.161642405636437
 49
1.161642405636437
 49
-1.161642405636437
  0
LTYPE
  2
DASHDOT
 70
64
  3
__ . __ . __ .
 72
65
 73
4
 40
4.646569622545748
 49
2.323284811272874
 49
-1.161642405636437
 49
0
 49
-1.161642405636437
  0
LTYPE
  2
DASHED
 70
64
  3
__ __ __ __ __
 72
65
 73
2
 40
3.484927216909311
 49
2.323284811272874
 49
-1.161642405636437
  0
LTYPE
  2
DIVIDE
 70
64
  3
__ . . __ . . 
 72
65
 73
6
 40
5.808212028182185
 49
2.323284811272874
 49
-1.161642405636437
 49
0
 49
-1.161642405636437
 49
0
 49
-1.161642405636437
  0
LTYPE
  2
DOT
 70
64
  3
..............
 72
65
 73
4
 40
2.323284811272874
 49
0
 49
-1.161642405636437
 49
0
 49
-1.161642405636437
  0
LTYPE
  2
HIDDEN
 70
64
  3
_ _ _ _ _ _ _
 72
65
 73
2
 40
1.742463608454655
 49
1.161642405636437
 49
-0.5808212028182185
  0
LTYPE
  2
PHANTOM
 70
64
  3
_____ _ _ _____ _ _ 
 72
65
 73
6
 40
11.61642405636437
 49
5.808212028182185
 49
-1.161642405636437
 49
1.161642405636437
 49
-1.161642405636437
 49
1.161642405636437
 49
-1.161642405636437
  0
ENDTAB
  0
TABLE
  2
LAYER
 70
3
  0
LAYER
  2
1
 70
0
 62
7
  6
CONTINUOUS
  0
LAYER
  2
0
 70
0
 62
7
  6
CONTINUOUS
  0
ENDTAB
  0
TABLE
  2
STYLE
 70
4
  0
STYLE
  2
STANDARD
 70
0
 40
0
 41
1
 50
0
 71
0
 42
3.5
  3
txt
  4

  0
STYLE
  2
SIMPLEX
 70
0
 40
0
 41
1
 50
0
 71
0
 42
3.5
  3
simplex
  4

  0
STYLE
  2
COMPLEX
 70
0
 40
0
 41
1
 50
0
 71
0
 42
3.5
  3
complex
  4

  0
STYLE
  2
ITALIC
 70
0
 40
0
 41
1
 50
0
 71
0
 42
3.5
  3
italic
  4

  0
ENDTAB
  0
TABLE
  2
VIEW
 70
0
  0
ENDTAB
  0
ENDSEC
  0
SECTION
  2
BLOCKS
  0
ENDSEC
  0
SECTION
  2
ENTITIES
  0
LINE
  8
1
 62
3
  6
DASHDOT
 10
-358.0499185080844
 20
58.3452007059879
 30
0
 11
-358.0499185080844
 21
53.4302942113395
 31
0
  0
LINE
  8
1
 62
3
  6
DASHDOT
 10
-360.615888834765
 20
55.79614320483606
 30
0
 11
-355.493727246969
 21
55.79614320483606
 31
0
  0
LINE
  8
1
 62
7
 10
-357.2999185080844
 20
56.22915590672828
 30
0
 11
-358.0499185080844
 21
56.66216860862051
 31
0
  0
LINE
  8
1
 62
7
 10
-357.2999185080844
 20
55.36313050294384
 30
0
 11
-357.2999185080844
 21
56.22915590672828
 31
0
  0
LINE
  8
1
 62
7
 10
-358.0499185080844
 20
54.93011780105163
 30
0
 11
-357.2999185080844
 21
55.36313050294384
 31
0
  0
LINE
  8
1
 62
7
 10
-358.7999185080844
 20
55.36313050294384
 30
0
 11
-358.0499185080844
 21
54.93011780105163
 31
0
  0
LINE
  8
1
 62
7
 10
-358.7999185080844
 20
56.22915590672828
 30
0
 11
-358.7999185080844
 21
55.36313050294384
 31
0
  0
LINE
  8
1
 62
7
 10
-358.0499185080844
 20
56.66216860862051
 30
0
 11
-358.7999185080844
 21
56.22915590672828
 31
0
  0
LINE
  8
1
 62
3
  6
DASHDOT
 10
-366.0499185080844
 20
58.3452007059879
 30
0
 11
-366.0499185080844
 21
53.4302942113395
 31
0
  0
LINE
  8
1
 62
3
  6
DASHDOT
 10
-368.615888834765
 20
55.79614320483606
 30
0
 11
-363.493727246969
 21
55.79614320483606
 31
0
  0
LINE
  8
1
 62
7
 10
-365.2999185080844
 20
56.22915590672828
 30
0
 11
-366.0499185080844
 21
56.66216860862051
 31
0
  0
LINE
  8
1
 62
7
 10
-365.2999185080844
 20
55.36313050294384
 30
0
 11
-365.2999185080844
 21
56.22915590672828
 31
0
  0
LINE
  8
1
 62
7
 10
-366.0499185080844
 20
54.93011780105163
 30
0
 11
-365.2999185080844
 21
55.36313050294384
 31
0
  0
LINE
  8
1
 62
7
 10
-366.7999185080844
 20
55.36313050294384
 30
0
 11
-366.0499185080844
 21
54.93011780105163
 31
0
  0
LINE
  8
1
 62
7
 10
-366.7999185080844
 20
56.22915590672828
 30
0
 11
-366.7999185080844
 21
55.36313050294384
 31
0
  0
LINE
  8
1
 62
7
 10
-366.0499185080844
 20
56.66216860862051
 30
0
 11
-366.7999185080844
 21
56.22915590672828
 31
0
  0
LINE
  8
1
 62
3
  6
DASHDOT
 10
-362.0499185080844
 20
62.3452007059879
 30
0
 11
-362.0499185080844
 21
57.4302942113395
 31
0
  0
LINE
  8
1
 62
3
  6
DASHDOT
 10
-364.615888834765
 20
59.79614320483606
 30
0
 11
-359.493727246969
 21
59.79614320483606
 31
0
  0
LINE
  8
1
 62
7
 10
-361.2999185080844
 20
60.22915590672828
 30
0
 11
-362.0499185080844
 21
60.66216860862051
 31
0
  0
LINE
  8
1
 62
7
 10
-361.2999185080844
 20
59.36313050294384
 30
0
 11
-361.2999185080844
 21
60.22915590672828
 31
0
  0
LINE
  8
1
 62
7
 10
-362.0499185080844
 20
58.93011780105163
 30
0
 11
-361.2999185080844
 21
59.36313050294384
 31
0
  0
LINE
  8
1
 62
7
 10
-362.7999185080844
 20
59.36313050294384
 30
0
 11
-362.0499185080844
 21
58.93011780105163
 31
0
  0
LINE
  8
1
 62
7
 10
-362.7999185080844
 20
60.22915590672828
 30
0
 11
-362.7999185080844
 21
59.36313050294384
 31
0
  0
LINE
  8
1
 62
7
 10
-362.0499185080844
 20
60.66216860862051
 30
0
 11
-362.7999185080844
 21
60.22915590672828
 31
0
  0
LINE
  8
1
 62
7
 10
-356.5499185080844
 20
53.09614320483604
 30
0
 11
-367.5499185080844
 21
53.09614320483604
 31
0
  0
LINE
  8
1
 62
7
 10
-359.2175303526593
 20
61.79614320483606
 30
0
 11
-356.0499185080844
 21
58.62853136026116
 31
0
  0
LINE
  8
1
 62
7
 10
-364.7880931011364
 20
61.79614320483606
 30
0
 11
-368.0499185080844
 21
58.53431779788808
 31
0
  0
LINE
  8
1
 62
7
 10
-193.7604827667366
 20
52.79614320483606
 30
0
 11
-220.6870905213302
 21
52.79614320483606
 31
0
  0
LINE
  8
1
 62
7
 10
-193.7604827667366
 20
41.79614320483606
 30
0
 11
-193.7604827667366
 21
52.79614320483606
 31
0
  0
LINE
  8
1
 62
7
 10
-320.8264590980975
 20
41.79614320483606
 30
0
 11
-226.8378496306418
 21
41.79614320483604
 31
0
  0
LINE
  8
1
 62
7
 10
-320.8264590980975
 20
52.79614320483606
 30
0
 11
-320.8264590980975
 21
41.79614320483606
 31
0
  0
LINE
  8
1
 62
7
 10
-315.527346672062
 20
53.09614320483605
 30
0
 11
-227.527346672062
 21
53.09614320483605
 31
0
  0
LINE
  8
1
 62
7
 10
-359.5499185080844
 20
51.13482286127641
 30
0
 11
-361.211238851644
 21
52.79614320483606
 31
0
  0
LINE
  8
1
 62
7
 10
-356.5499185080844
 20
52.79614320483606
 30
0
 11
-357.8885981645248
 21
52.79614320483606
 31
0
  0
LINE
  8
1
 62
7
 10
-356.5499185080844
 20
52.79614320483606
 30
0
 11
-356.0499185080844
 21
52.29614320483606
 31
0
  0
LINE
  8
1
 62
7
 10
-356.0499185080844
 20
42.29614320483606
 30
0
 11
-356.5499185080844
 21
41.79614320483606
 31
0
  0
LINE
  8
1
 62
7
 10
-357.8885981645248
 20
52.79614320483606
 30
0
 11
-359.5499185080844
 21
51.13482286127641
 31
0
  0
LINE
  8
1
 62
7
 10
-367.5499185080844
 20
41.79614320483606
 30
0
 11
-368.0499185080844
 21
42.29614320483606
 31
0
  0
LINE
  8
1
 62
7
 10
-368.0499185080844
 20
52.29614320483606
 30
0
 11
-367.5499185080844
 21
52.79614320483606
 31
0
  0
LINE
  8
1
 62
7
 10
-367.5499185080844
 20
41.79614320483606
 30
0
 11
-356.5499185080844
 21
41.79614320483606
 31
0
  0
LINE
  8
1
 62
7
 10
-366.211238851644
 20
52.79614320483606
 30
0
 11
-367.5499185080844
 21
52.79614320483606
 31
0
  0
LINE
  8
1
 62
7
 10
-364.5499185080844
 20
51.13482286127638
 30
0
 11
-366.211238851644
 21
52.79614320483606
 31
0
  0
LINE
  8
1
 62
7
 10
-362.8885981645248
 20
52.79614320483606
 30
0
 11
-364.5499185080844
 21
51.13482286127638
 31
0
  0
LINE
  8
1
 62
7
 10
-362.8885981645248
 20
52.79614320483606
 30
0
 11
-361.211238851644
 21
52.79614320483606
 31
0
  0
LINE
  8
1
 62
7
 10
-356.0499185080844
 20
58.62853136026116
 30
0
 11
-356.0499185080844
 21
53.59614320483605
 31
0
  0
LINE
  8
1
 62
7
 10
-368.0499185080844
 20
58.53431779788808
 30
0
 11
-368.0499185080844
 21
53.59614320483604
 31
0
  0
LINE
  8
1
 62
7
 10
-359.2175303526593
 20
61.79614320483606
 30
0
 11
-364.7880931011364
 21
61.79614320483606
 31
0
  0
LINE
  8
1
 62
7
 10
-368.0499185080844
 20
53.59614320483604
 30
0
 11
-367.5499185080844
 21
53.09614320483604
 31
0
  0
LINE
  8
1
 62
7
 10
-356.0499185080844
 20
53.59614320483605
 30
0
 11
-356.5499185080844
 21
53.09614320483604
 31
0
  0
LINE
  8
1
 62
7
 10
-356.0499185080844
 20
52.29614320483606
 30
0
 11
-356.0499185080844
 21
42.29614320483606
 31
0
  0
LINE
  8
1
 62
7
 10
-368.0499185080844
 20
42.29614320483606
 30
0
 11
-368.0499185080844
 21
52.29614320483606
 31
0
  0
LINE
  8
1
 62
3
  6
CENTER
 10
-370.330128423475
 20
46.29614320483605
 30
0
 11
-353.048721607689
 21
46.29614320483605
 31
0
  0
LINE
  8
1
 62
3
  6
CENTER
 10
-219.7859265537188
 20
46.29614320483605
 30
0
 11
-207.9592993347839
 21
46.29614320483605
 31
0
  0
LINE
  8
1
 62
3
  6
CENTER
 10
-213.7604827667366
 20
50.73377669105855
 30
0
 11
-213.7604827667366
 21
40.46496607518376
 31
0
  0
LINE
  8
1
 62
3
  6
CENTER
 10
-307.6021987430679
 20
46.29614320483605
 30
0
 11
-294.7471691572691
 21
46.29614320483605
 31
0
  0
LINE
  8
1
 62
3
  6
CENTER
 10
-267.2912519975058
 20
46.29614320483605
 30
0
 11
-253.1507194531271
 21
46.29614320483605
 31
0
  0
LINE
  8
1
 62
3
  6
CENTER
 10
-300.8264590980975
 20
50.42405644820586
 30
0
 11
-300.8264590980975
 21
40.37678728129085
 31
0
  0
LINE
  8
1
 62
3
  6
CENTER
 10
-260.8264590980975
 20
50.79462890211555
 30
0
 11
-260.8264590980975
 21
39.71191996335286
 31
0
  0
LINE
  8
1
 62
7
 10
-303.5273466720621
 20
53.09614320483605
 30
0
 11
-303.527346672062
 21
61.79614320483606
 31
0
  0
LINE
  8
1
 62
7
 10
-239.527346672062
 20
61.79614320483606
 30
0
 11
-239.5273466720621
 21
53.0961432048361
 31
0
  0
LINE
  8
1
 62
7
 10
-315.527346672062
 20
61.79614320483606
 30
0
 11
-315.527346672062
 21
53.09614320483605
 31
0
  0
LINE
  8
1
 62
7
 10
-312.527346672062
 20
61.79614320483606
 30
0
 11
-312.527346672062
 21
53.09614320483605
 31
0
  0
LINE
  8
1
 62
7
 10
-315.527346672062
 20
61.79614320483606
 30
0
 11
-227.527346672062
 21
61.79614320483606
 31
0
  0
LINE
  8
1
 62
7
 10
-312.527346672062
 20
60.42175514132237
 30
0
 11
-303.527346672062
 21
60.42175514132235
 31
0
  0
LINE
  8
1
 62
7
 10
-227.527346672062
 20
61.79614320483606
 30
0
 11
-227.527346672062
 21
53.09614320483605
 31
0
  0
LINE
  8
1
 62
7
 10
-230.527346672062
 20
61.79614320483606
 30
0
 11
-230.527346672062
 21
53.09614320483606
 31
0
  0
LINE
  8
1
 62
7
 10
-239.527346672062
 20
60.42175514132235
 30
0
 11
-230.527346672062
 21
60.42175514132235
 31
0
  0
LINE
  8
1
 62
3
  6
CENTER
 10
-296.427346672062
 20
56.79614320483606
 30
0
 11
-291.627346672062
 21
56.79614320483606
 31
0
  0
LINE
  8
1
 62
3
  6
CENTER
 10
-294.027346672062
 20
54.39614320483607
 30
0
 11
-294.027346672062
 21
59.19614320483605
 31
0
  0
LINE
  8
1
 62
3
  6
CENTER
 10
-281.427346672062
 20
56.79614320483606
 30
0
 11
-276.627346672062
 21
56.79614320483606
 31
0
  0
LINE
  8
1
 62
3
  6
CENTER
 10
-279.027346672062
 20
54.39614320483607
 30
0
 11
-279.027346672062
 21
59.19614320483605
 31
0
  0
LINE
  8
1
 62
3
  6
CENTER
 10
-266.427346672062
 20
56.79614320483606
 30
0
 11
-261.627346672062
 21
56.79614320483606
 31
0
  0
LINE
  8
1
 62
3
  6
CENTER
 10
-264.027346672062
 20
54.39614320483607
 30
0
 11
-264.027346672062
 21
59.19614320483605
 31
0
  0
LINE
  8
1
 62
3
  6
CENTER
 10
-251.427346672062
 20
56.79614320483606
 30
0
 11
-246.627346672062
 21
56.79614320483606
 31
0
  0
LINE
  8
1
 62
3
  6
CENTER
 10
-249.027346672062
 20
54.39614320483607
 30
0
 11
-249.027346672062
 21
59.19614320483605
 31
0
  0
LINE
  8
1
 62
3
  6
DIVIDE
 10
-221.5856306957306
 20
56.58016687347505
 30
0
 11
-228.5273466720619
 21
37.04052190306086
 31
0
  0
LINE
  8
1
 62
3
  6
DIVIDE
 10
-219.3614833170643
 20
56.52748200202892
 30
0
 11
-226.3031992933956
 21
36.98783703161472
 31
0
  0
LINE
  8
1
 62
7
 10
-224.5949852581723
 20
41.79614320483604
 30
0
 11
-193.7604827667366
 21
41.79614320483606
 31
0
  0
LINE
  8
1
 62
7
 10
-222.9299548937997
 20
52.79614320483606
 30
0
 11
-320.8264590980975
 21
52.79614320483606
 31
0
  0
CIRCLE
  8
1
 62
7
 10
-358.0499185080844
 20
55.79614320483606
 30
0
 40
1.900000000000034
  0
CIRCLE
  8
1
 62
7
 10
-366.0499185080844
 20
55.79614320483606
 30
0
 40
1.900000000000034
  0
CIRCLE
  8
1
 62
7
 10
-362.0499185080844
 20
59.79614320483606
 30
0
 40
1.900000000000034
  0
CIRCLE
  8
1
 62
7
 10
-213.7604827667366
 20
46.29614320483605
 30
0
 40
1.650000000000006
  0
CIRCLE
  8
1
 62
7
 10
-213.7604827667366
 20
46.29614320483605
 30
0
 40
3
  0
CIRCLE
  8
1
 62
7
 10
-300.8264590980975
 20
46.29614320483605
 30
0
 40
1.650000000000034
  0
CIRCLE
  8
1
 62
7
 10
-300.8264590980975
 20
46.29614320483605
 30
0
 40
3
  0
CIRCLE
  8
1
 62
7
 10
-260.8264590980975
 20
46.29614320483605
 30
0
 40
3
  0
CIRCLE
  8
1
 62
7
 10
-260.8264590980975
 20
46.29614320483605
 30
0
 40
1.649999999999977
  0
CIRCLE
  8
1
 62
7
 10
-294.027346672062
 20
56.79614320483606
 30
0
 40
1.200000000000046
  0
CIRCLE
  8
1
 62
3
 10
-294.027346672062
 20
56.79614320483606
 30
0
 40
1.5
  0
CIRCLE
  8
1
 62
7
 10
-279.027346672062
 20
56.79614320483606
 30
0
 40
1.199999999999989
  0
CIRCLE
  8
1
 62
3
 10
-279.027346672062
 20
56.79614320483606
 30
0
 40
1.5
  0
CIRCLE
  8
1
 62
7
 10
-264.027346672062
 20
56.79614320483606
 30
0
 40
1.199999999999989
  0
CIRCLE
  8
1
 62
3
 10
-264.027346672062
 20
56.79614320483606
 30
0
 40
1.5
  0
CIRCLE
  8
1
 62
7
 10
-249.027346672062
 20
56.79614320483606
 30
0
 40
1.200000000000017
  0
CIRCLE
  8
1
 62
3
 10
-249.027346672062
 20
56.79614320483606
 30
0
 40
1.5
  0
TEXT
  8
1
 62
2
 10
-367.62189247331
 20
88.7865679539421
 30
0
 40
4
  1
MODEL : TGH2L
 41
0.9
  7
COMPLEX
  0
TEXT
  8
1
 62
2
 10
-251.241421907605
 20
9.565087824649002
 30
0
 40
4
  1
UNION TOOL CO.
 41
0.9
  7
COMPLEX
  0
ENDSEC
  0
EOF
