  0
SECTION
  2
HEADER
  9
$ACADVER
  1
AC1009
  9
$INSBASE
 10
0
 20
0
  9
$EXTMIN
 10
28.833983706826
 20
935.206702418184
  9
$EXTMAX
 10
222.1590151450748
 20
1044.31888432199
  9
$LIMMIN
 10
28.833983706826
 20
935.206702418184
  9
$LIMMAX
 10
222.1590151450748
 20
1044.31888432199
  9
$VIEWCTR
 10
10
 20
10
  9
$VIEWSIZE
 40
10
  9
$SNAPMODE
 70
0
  9
$SNAPUNIT
 10
1
 20
1
  9
$SNAPBASE
 10
0
 20
0
  9
$SNAPANG
 50
0
  9
$SNAPSTYLE
 70
0
  9
$SNAPISOPAIR
 70
0
  9
$GRIDMODE
 70
0
  9
$GRIDUNIT
 10
0
 20
0
  9
$ORTHOMODE
 70
0
  9
$REGENMODE
 70
1
  9
$FILLMODE
 70
1
  9
$QTEXTMODE
 70
0
  9
$DRAGMODE
 70
2
  9
$LTSCALE
 40
1
  9
$OSMODE
 70
0
  9
$ATTMODE
 70
1
  9
$TEXTSIZE
 40
3.5
  9
$TRACEWID
 40
0.5
  9
$TEXTSTYLE
  7
STANDARD
  9
$CLAYER
  8
0
  9
$CELTYPE
  6
BYLAYER
  9
$CECOLOR
 62
256
  9
$DIMSCALE
 40
1
  9
$DIMASZ
 40
0.18
  9
$DIMEXO
 40
0.0625
  9
$DIMDLI
 40
0.38
  9
$DIMRND
 40
0
  9
$DIMDLE
 40
0
  9
$DIMEXE
 40
0.18
  9
$DIMTP
 40
0
  9
$DIMTM
 40
0
  9
$DIMTXT
 40
0.18
  9
$DIMCEN
 40
0.09
  9
$DIMTSZ
 40
0
  9
$DIMTOL
 70
0
  9
$DIMLIM
 70
0
  9
$DIMTIH
 70
1
  9
$DIMTOH
 70
1
  9
$DIMSE1
 70
0
  9
$DIMSE2
 70
0
  9
$DIMTAD
 70
0
  9
$DIMZIN
 70
0
  9
$DIMBLK
  1

  9
$DIMASO
 70
1
  9
$DIMSHO
 70
1
  9
$DIMPOST
  1

  9
$DIMAPOST
  1

  9
$DIMALT
 70
0
  9
$DIMALTD
 70
2
  9
$DIMALTF
 40
25.4
  9
$DIMLFAC
 40
1
  9
$DIMTOFL
 70
0
  9
$DIMTVP
 40
0
  9
$DIMTIX
 70
0
  9
$DIMSOXD
 70
0
  9
$DIMSAH
 70
0
  9
$DIMBLK1
  1

  9
$DIMBLK2
  1

  9
$DIMSTYLE
  2
*UNNAMED
  9
$DIMCLRD
 70
0
  9
$DIMCLRE
 70
0
  9
$DIMCLRT
 70
0
  9
$DIMTFAC
 40
1
  9
$DIMGAP
 40
0.09
  9
$LUNITS
 70
2
  9
$LUPREC
 70
4
  9
$AXISMODE
 70
0
  9
$AXISUNIT
 10
0
 20
0
  9
$SKETCHINC
 40
0.1
  9
$FILLETRAD
 40
2
  9
$AUNITS
 70
0
  9
$AUPREC
 70
0
  9
$MENU
  1
ACAD
  9
$ELEVATION
 40
0
  9
$THICKNESS
 40
0
  9
$VIEWDIR
 10
0
 20
0
 30
1
  9
$LIMCHECK
 70
0
  9
$BLIPMODE
 70
1
  9
$CHAMFERA
 40
0
  9
$CHAMFERB
 40
0
  9
$FASTZOOM
 70
1
  9
$SKPOLY
 70
0
  9
$ANGBASE
 50
0
  9
$ANGDIR
 70
0
  9
$PDMODE
 70
0
  9
$PDSIZE
 40
0
  9
$PLINEWID
 40
0
  9
$COORDS
 70
2
  0
ENDSEC
  0
SECTION
  2
TABLES
  0
TABLE
  2
DIMSTYLE
 70
0
  0
ENDTAB
  0
TABLE
  2
LTYPE
 70
9
  0
LTYPE
  2
CONTINUOUS
 70
64
  3
Solid line
 72
65
 73
0
 40
0
  0
LTYPE
  2
BORDER
 70
64
  3
__ __ . __ __ .
 72
65
 73
6
 40
8.90312644781409
 49
2.543750413661169
 49
-1.271875206830584
 49
2.543750413661169
 49
-1.271875206830584
 49
0
 49
-1.271875206830584
  0
LTYPE
  2
CENTER
 70
64
  3
____ _ ____ _
 72
65
 73
4
 40
10.17500165464467
 49
6.359376034152922
 49
-1.271875206830584
 49
1.271875206830584
 49
-1.271875206830584
  0
LTYPE
  2
DASHDOT
 70
64
  3
__ . __ . __ .
 72
65
 73
4
 40
5.087500827322337
 49
2.543750413661169
 49
-1.271875206830584
 49
0
 49
-1.271875206830584
  0
LTYPE
  2
DASHED
 70
64
  3
__ __ __ __ __
 72
65
 73
2
 40
3.815625620491753
 49
2.543750413661169
 49
-1.271875206830584
  0
LTYPE
  2
DIVIDE
 70
64
  3
__ . . __ . . 
 72
65
 73
6
 40
6.359376034152922
 49
2.543750413661169
 49
-1.271875206830584
 49
0
 49
-1.271875206830584
 49
0
 49
-1.271875206830584
  0
LTYPE
  2
DOT
 70
64
  3
..............
 72
65
 73
4
 40
2.543750413661169
 49
0
 49
-1.271875206830584
 49
0
 49
-1.271875206830584
  0
LTYPE
  2
HIDDEN
 70
64
  3
_ _ _ _ _ _ _
 72
65
 73
2
 40
1.907812810245877
 49
1.271875206830584
 49
-0.6359376034152922
  0
LTYPE
  2
PHANTOM
 70
64
  3
_____ _ _ _____ _ _ 
 72
65
 73
6
 40
12.71875206830584
 49
6.359376034152922
 49
-1.271875206830584
 49
1.271875206830584
 49
-1.271875206830584
 49
1.271875206830584
 49
-1.271875206830584
  0
ENDTAB
  0
TABLE
  2
LAYER
 70
3
  0
LAYER
  2
1
 70
0
 62
7
  6
CONTINUOUS
  0
LAYER
  2
0
 70
0
 62
7
  6
CONTINUOUS
  0
ENDTAB
  0
TABLE
  2
STYLE
 70
4
  0
STYLE
  2
STANDARD
 70
0
 40
0
 41
1
 50
0
 71
0
 42
3.5
  3
txt
  4

  0
STYLE
  2
SIMPLEX
 70
0
 40
0
 41
1
 50
0
 71
0
 42
3.5
  3
simplex
  4

  0
STYLE
  2
COMPLEX
 70
0
 40
0
 41
1
 50
0
 71
0
 42
3.5
  3
complex
  4

  0
STYLE
  2
ITALIC
 70
0
 40
0
 41
1
 50
0
 71
0
 42
3.5
  3
italic
  4

  0
ENDTAB
  0
TABLE
  2
VIEW
 70
0
  0
ENDTAB
  0
ENDSEC
  0
SECTION
  2
BLOCKS
  0
ENDSEC
  0
SECTION
  2
ENTITIES
  0
LINE
  8
1
 62
7
 10
187.3050780707748
 20
1014.535683615047
 30
0
 11
187.633072972346
 21
1014.535683615047
 31
0
  0
LINE
  8
1
 62
7
 10
187.633072972346
 20
1014.535683615047
 30
0
 11
187.6524251107017
 21
1013.427000351171
 31
0
  0
LINE
  8
1
 62
7
 10
187.6524251107017
 20
1013.427000351171
 30
0
 11
187.8354081566647
 21
1013.016013700937
 31
0
  0
LINE
  8
1
 62
7
 10
187.8354081566647
 20
1013.016013700937
 30
0
 11
188.2463948068986
 21
1012.833030654974
 31
0
  0
LINE
  8
1
 62
7
 10
188.2463948068986
 20
1012.833030654974
 30
0
 11
189.3550780707748
 21
1012.813678516618
 31
0
  0
LINE
  8
1
 62
7
 10
189.3550780707748
 20
1012.813678516618
 30
0
 11
189.3550780707748
 21
1012.485683615047
 31
0
  0
LINE
  8
1
 62
7
 10
186.9770831692037
 20
1014.535683615047
 30
0
 11
187.3050780707748
 21
1014.535683615047
 31
0
  0
LINE
  8
1
 62
7
 10
186.957731030848
 20
1013.427000351171
 30
0
 11
186.9770831692037
 21
1014.535683615047
 31
0
  0
LINE
  8
1
 62
7
 10
186.7747479848849
 20
1013.016013700937
 30
0
 11
186.957731030848
 21
1013.427000351171
 31
0
  0
LINE
  8
1
 62
7
 10
186.3637613346511
 20
1012.833030654974
 30
0
 11
186.7747479848849
 21
1013.016013700937
 31
0
  0
LINE
  8
1
 62
7
 10
185.255078070775
 20
1012.813678516618
 30
0
 11
186.3637613346511
 21
1012.833030654974
 31
0
  0
LINE
  8
1
 62
7
 10
185.255078070775
 20
1012.485683615047
 30
0
 11
185.255078070775
 21
1012.813678516618
 31
0
  0
LINE
  8
1
 62
7
 10
187.633072972346
 20
1010.435683615047
 30
0
 11
187.3050780707748
 21
1010.435683615047
 31
0
  0
LINE
  8
1
 62
7
 10
187.6524251107017
 20
1011.544366878923
 30
0
 11
187.633072972346
 21
1010.435683615047
 31
0
  0
LINE
  8
1
 62
7
 10
187.8354081566647
 20
1011.955353529157
 30
0
 11
187.6524251107017
 21
1011.544366878923
 31
0
  0
LINE
  8
1
 62
7
 10
188.2463948068986
 20
1012.13833657512
 30
0
 11
187.8354081566647
 21
1011.955353529157
 31
0
  0
LINE
  8
1
 62
7
 10
189.3550780707748
 20
1012.157688713476
 30
0
 11
188.2463948068986
 21
1012.13833657512
 31
0
  0
LINE
  8
1
 62
7
 10
189.3550780707748
 20
1012.485683615047
 30
0
 11
189.3550780707748
 21
1012.157688713476
 31
0
  0
LINE
  8
1
 62
7
 10
187.3050780707748
 20
1010.435683615047
 30
0
 11
186.9770831692037
 21
1010.435683615047
 31
0
  0
LINE
  8
1
 62
7
 10
186.9770831692037
 20
1010.435683615047
 30
0
 11
186.957731030848
 21
1011.544366878923
 31
0
  0
LINE
  8
1
 62
7
 10
186.957731030848
 20
1011.544366878923
 30
0
 11
186.7747479848849
 21
1011.955353529157
 31
0
  0
LINE
  8
1
 62
7
 10
186.7747479848849
 20
1011.955353529157
 30
0
 11
186.3637613346511
 21
1012.13833657512
 31
0
  0
LINE
  8
1
 62
7
 10
186.3637613346511
 20
1012.13833657512
 30
0
 11
185.255078070775
 21
1012.157688713476
 31
0
  0
LINE
  8
1
 62
7
 10
185.255078070775
 20
1012.157688713476
 30
0
 11
185.255078070775
 21
1012.485683615047
 31
0
  0
LINE
  8
1
 62
7
 10
187.8050780707748
 20
1002.385683615047
 30
0
 11
188.133072972346
 21
1002.385683615047
 31
0
  0
LINE
  8
1
 62
7
 10
188.133072972346
 20
1002.385683615047
 30
0
 11
188.1524251107017
 21
1001.277000351171
 31
0
  0
LINE
  8
1
 62
7
 10
188.1524251107017
 20
1001.277000351171
 30
0
 11
188.3354081566647
 21
1000.866013700937
 31
0
  0
LINE
  8
1
 62
7
 10
188.3354081566647
 20
1000.866013700937
 30
0
 11
188.7463948068986
 21
1000.683030654974
 31
0
  0
LINE
  8
1
 62
7
 10
188.7463948068986
 20
1000.683030654974
 30
0
 11
189.8550780707748
 21
1000.663678516618
 31
0
  0
LINE
  8
1
 62
7
 10
189.8550780707748
 20
1000.663678516618
 30
0
 11
189.8550780707748
 21
1000.335683615047
 31
0
  0
LINE
  8
1
 62
7
 10
187.4770831692037
 20
1002.385683615047
 30
0
 11
187.8050780707748
 21
1002.385683615047
 31
0
  0
LINE
  8
1
 62
7
 10
187.457731030848
 20
1001.277000351171
 30
0
 11
187.4770831692037
 21
1002.385683615047
 31
0
  0
LINE
  8
1
 62
7
 10
187.2747479848849
 20
1000.866013700937
 30
0
 11
187.457731030848
 21
1001.277000351171
 31
0
  0
LINE
  8
1
 62
7
 10
186.8637613346511
 20
1000.683030654974
 30
0
 11
187.2747479848849
 21
1000.866013700937
 31
0
  0
LINE
  8
1
 62
7
 10
185.755078070775
 20
1000.663678516618
 30
0
 11
186.8637613346511
 21
1000.683030654974
 31
0
  0
LINE
  8
1
 62
7
 10
185.755078070775
 20
1000.335683615047
 30
0
 11
185.755078070775
 21
1000.663678516618
 31
0
  0
LINE
  8
1
 62
7
 10
188.133072972346
 20
998.285683615047
 30
0
 11
187.8050780707748
 21
998.285683615047
 31
0
  0
LINE
  8
1
 62
7
 10
188.1524251107017
 20
999.3943668789229
 30
0
 11
188.133072972346
 21
998.285683615047
 31
0
  0
LINE
  8
1
 62
7
 10
188.3354081566647
 20
999.805353529157
 30
0
 11
188.1524251107017
 21
999.3943668789229
 31
0
  0
LINE
  8
1
 62
7
 10
188.7463948068986
 20
999.98833657512
 30
0
 11
188.3354081566647
 21
999.805353529157
 31
0
  0
LINE
  8
1
 62
7
 10
189.8550780707748
 20
1000.007688713476
 30
0
 11
188.7463948068986
 21
999.98833657512
 31
0
  0
LINE
  8
1
 62
7
 10
189.8550780707748
 20
1000.335683615047
 30
0
 11
189.8550780707748
 21
1000.007688713476
 31
0
  0
LINE
  8
1
 62
7
 10
187.8050780707748
 20
998.285683615047
 30
0
 11
187.4770831692037
 21
998.285683615047
 31
0
  0
LINE
  8
1
 62
7
 10
187.4770831692037
 20
998.285683615047
 30
0
 11
187.457731030848
 21
999.3943668789229
 31
0
  0
LINE
  8
1
 62
7
 10
187.457731030848
 20
999.3943668789229
 30
0
 11
187.2747479848849
 21
999.805353529157
 31
0
  0
LINE
  8
1
 62
7
 10
187.2747479848849
 20
999.805353529157
 30
0
 11
186.8637613346511
 21
999.98833657512
 31
0
  0
LINE
  8
1
 62
7
 10
186.8637613346511
 20
999.98833657512
 30
0
 11
185.755078070775
 21
1000.007688713476
 31
0
  0
LINE
  8
1
 62
7
 10
185.755078070775
 20
1000.007688713476
 30
0
 11
185.755078070775
 21
1000.335683615047
 31
0
  0
LINE
  8
1
 62
7
 10
187.633072972346
 20
974.0356836150468
 30
0
 11
187.3050780707748
 21
974.0356836150468
 31
0
  0
LINE
  8
1
 62
7
 10
187.6524251107017
 20
975.1443668789229
 30
0
 11
187.633072972346
 21
974.0356836150468
 31
0
  0
LINE
  8
1
 62
7
 10
187.8354081566647
 20
975.555353529157
 30
0
 11
187.6524251107017
 21
975.1443668789229
 31
0
  0
LINE
  8
1
 62
7
 10
188.2463948068986
 20
975.7383365751198
 30
0
 11
187.8354081566647
 21
975.555353529157
 31
0
  0
LINE
  8
1
 62
7
 10
189.3550780707748
 20
975.7576887134758
 30
0
 11
188.2463948068986
 21
975.7383365751198
 31
0
  0
LINE
  8
1
 62
7
 10
189.3550780707748
 20
976.085683615047
 30
0
 11
189.3550780707748
 21
975.7576887134758
 31
0
  0
LINE
  8
1
 62
7
 10
187.3050780707748
 20
974.0356836150468
 30
0
 11
186.9770831692037
 21
974.0356836150468
 31
0
  0
LINE
  8
1
 62
7
 10
186.9770831692037
 20
974.0356836150468
 30
0
 11
186.957731030848
 21
975.1443668789229
 31
0
  0
LINE
  8
1
 62
7
 10
186.957731030848
 20
975.1443668789229
 30
0
 11
186.7747479848849
 21
975.555353529157
 31
0
  0
LINE
  8
1
 62
7
 10
186.7747479848849
 20
975.555353529157
 30
0
 11
186.3637613346511
 21
975.7383365751198
 31
0
  0
LINE
  8
1
 62
7
 10
186.3637613346511
 20
975.7383365751198
 30
0
 11
185.255078070775
 21
975.7576887134758
 31
0
  0
LINE
  8
1
 62
7
 10
185.255078070775
 20
975.7576887134758
 30
0
 11
185.255078070775
 21
976.085683615047
 31
0
  0
LINE
  8
1
 62
7
 10
187.3050780707748
 20
978.1356836150469
 30
0
 11
187.633072972346
 21
978.1356836150469
 31
0
  0
LINE
  8
1
 62
7
 10
187.633072972346
 20
978.1356836150469
 30
0
 11
187.6524251107017
 21
977.027000351171
 31
0
  0
LINE
  8
1
 62
7
 10
187.6524251107017
 20
977.027000351171
 30
0
 11
187.8354081566647
 21
976.616013700937
 31
0
  0
LINE
  8
1
 62
7
 10
187.8354081566647
 20
976.616013700937
 30
0
 11
188.2463948068986
 21
976.4330306549739
 31
0
  0
LINE
  8
1
 62
7
 10
188.2463948068986
 20
976.4330306549739
 30
0
 11
189.3550780707748
 21
976.4136785166179
 31
0
  0
LINE
  8
1
 62
7
 10
189.3550780707748
 20
976.4136785166179
 30
0
 11
189.3550780707748
 21
976.085683615047
 31
0
  0
LINE
  8
1
 62
7
 10
186.9770831692037
 20
978.1356836150469
 30
0
 11
187.3050780707748
 21
978.1356836150469
 31
0
  0
LINE
  8
1
 62
7
 10
186.957731030848
 20
977.027000351171
 30
0
 11
186.9770831692037
 21
978.1356836150469
 31
0
  0
LINE
  8
1
 62
7
 10
186.7747479848849
 20
976.616013700937
 30
0
 11
186.957731030848
 21
977.027000351171
 31
0
  0
LINE
  8
1
 62
7
 10
186.3637613346511
 20
976.4330306549739
 30
0
 11
186.7747479848849
 21
976.616013700937
 31
0
  0
LINE
  8
1
 62
7
 10
185.255078070775
 20
976.4136785166179
 30
0
 11
186.3637613346511
 21
976.4330306549739
 31
0
  0
LINE
  8
1
 62
7
 10
185.255078070775
 20
976.085683615047
 30
0
 11
185.255078070775
 21
976.4136785166179
 31
0
  0
LINE
  8
1
 62
7
 10
188.133072972346
 20
986.1856836150471
 30
0
 11
187.8050780707748
 21
986.1856836150471
 31
0
  0
LINE
  8
1
 62
7
 10
188.1524251107017
 20
987.294366878923
 30
0
 11
188.133072972346
 21
986.1856836150471
 31
0
  0
LINE
  8
1
 62
7
 10
188.3354081566647
 20
987.705353529157
 30
0
 11
188.1524251107017
 21
987.294366878923
 31
0
  0
LINE
  8
1
 62
7
 10
188.7463948068986
 20
987.8883365751201
 30
0
 11
188.3354081566647
 21
987.705353529157
 31
0
  0
LINE
  8
1
 62
7
 10
189.8550780707748
 20
987.9076887134761
 30
0
 11
188.7463948068986
 21
987.8883365751201
 31
0
  0
LINE
  8
1
 62
7
 10
189.8550780707748
 20
988.235683615047
 30
0
 11
189.8550780707748
 21
987.9076887134761
 31
0
  0
LINE
  8
1
 62
7
 10
187.8050780707748
 20
986.1856836150471
 30
0
 11
187.4770831692037
 21
986.1856836150471
 31
0
  0
LINE
  8
1
 62
7
 10
187.4770831692037
 20
986.1856836150471
 30
0
 11
187.457731030848
 21
987.294366878923
 31
0
  0
LINE
  8
1
 62
7
 10
187.457731030848
 20
987.294366878923
 30
0
 11
187.2747479848849
 21
987.705353529157
 31
0
  0
LINE
  8
1
 62
7
 10
187.2747479848849
 20
987.705353529157
 30
0
 11
186.8637613346511
 21
987.8883365751201
 31
0
  0
LINE
  8
1
 62
7
 10
186.8637613346511
 20
987.8883365751201
 30
0
 11
185.755078070775
 21
987.9076887134761
 31
0
  0
LINE
  8
1
 62
7
 10
185.755078070775
 20
987.9076887134761
 30
0
 11
185.755078070775
 21
988.235683615047
 31
0
  0
LINE
  8
1
 62
7
 10
187.8050780707748
 20
990.285683615047
 30
0
 11
188.133072972346
 21
990.285683615047
 31
0
  0
LINE
  8
1
 62
7
 10
188.133072972346
 20
990.285683615047
 30
0
 11
188.1524251107017
 21
989.1770003511711
 31
0
  0
LINE
  8
1
 62
7
 10
188.1524251107017
 20
989.1770003511711
 30
0
 11
188.3354081566647
 21
988.766013700937
 31
0
  0
LINE
  8
1
 62
7
 10
188.3354081566647
 20
988.766013700937
 30
0
 11
188.7463948068986
 21
988.583030654974
 31
0
  0
LINE
  8
1
 62
7
 10
188.7463948068986
 20
988.583030654974
 30
0
 11
189.8550780707748
 21
988.563678516618
 31
0
  0
LINE
  8
1
 62
7
 10
189.8550780707748
 20
988.563678516618
 30
0
 11
189.8550780707748
 21
988.235683615047
 31
0
  0
LINE
  8
1
 62
7
 10
187.4770831692037
 20
990.285683615047
 30
0
 11
187.8050780707748
 21
990.285683615047
 31
0
  0
LINE
  8
1
 62
7
 10
187.457731030848
 20
989.1770003511711
 30
0
 11
187.4770831692037
 21
990.285683615047
 31
0
  0
LINE
  8
1
 62
7
 10
187.2747479848849
 20
988.766013700937
 30
0
 11
187.457731030848
 21
989.1770003511711
 31
0
  0
LINE
  8
1
 62
7
 10
186.8637613346511
 20
988.583030654974
 30
0
 11
187.2747479848849
 21
988.766013700937
 31
0
  0
LINE
  8
1
 62
7
 10
185.755078070775
 20
988.563678516618
 30
0
 11
186.8637613346511
 21
988.583030654974
 31
0
  0
LINE
  8
1
 62
7
 10
185.755078070775
 20
988.235683615047
 30
0
 11
185.755078070775
 21
988.563678516618
 31
0
  0
LINE
  8
1
 62
7
 10
186.3464022790866
 20
1004.592708977286
 30
0
 11
184.9893033623888
 21
1005.949807893983
 31
0
  0
LINE
  8
1
 62
7
 10
188.3180180154831
 20
1008.101170795085
 30
0
 11
189.733505195521
 21
1006.685683615047
 31
0
  0
LINE
  8
1
 62
7
 10
188.2892169915278
 20
1008.094616479981
 30
0
 11
189.6208527791607
 21
1006.762980692348
 31
0
  0
LINE
  8
1
 62
7
 10
188.1723619414874
 20
1008.070050173784
 30
0
 11
189.6208527791607
 21
1006.621559336111
 31
0
  0
LINE
  8
1
 62
7
 10
186.2421440531486
 20
984.0158213831078
 30
0
 11
184.9893033623888
 21
982.7629806923479
 31
0
  0
LINE
  8
1
 62
7
 10
187.550021478057
 20
980.5790123062544
 30
0
 11
189.6102461774429
 21
982.6392370056403
 31
0
  0
LINE
  8
1
 62
7
 10
187.3862549131511
 20
980.5849513688332
 30
0
 11
189.6102461774429
 21
982.8089426331251
 31
0
  0
LINE
  8
1
 62
7
 10
186.2921381260664
 20
980.4701964350093
 30
0
 11
184.9150571503642
 21
981.8472774107113
 31
0
  0
LINE
  8
1
 62
7
 10
188.6107878546829
 20
983.8084009558852
 30
0
 11
189.733505195521
 21
982.685683615047
 31
0
  0
LINE
  8
1
 62
7
 10
187.0388779099257
 20
983.8013925427881
 30
0
 11
184.9999099641066
 21
981.7624245969689
 31
0
  0
LINE
  8
1
 62
7
 10
186.8962027863472
 20
983.8284230466943
 30
0
 11
184.9999099641066
 21
981.9321302244537
 31
0
  0
LINE
  8
1
 62
7
 10
186.216409574292
 20
984.0254422433103
 30
0
 11
184.8766509460286
 21
982.685683615047
 31
0
  0
LINE
  8
1
 62
7
 10
184.9150571503642
 20
1006.724089819383
 30
0
 11
186.2921381260664
 21
1008.101170795085
 31
0
  0
LINE
  8
1
 62
7
 10
184.9999099641066
 20
1006.808942633125
 30
0
 11
187.0388779099257
 21
1004.769974687306
 31
0
  0
LINE
  8
1
 62
7
 10
189.6102461774429
 20
1005.762424596969
 30
0
 11
187.3862549131511
 21
1007.986415861261
 31
0
  0
LINE
  8
1
 62
7
 10
189.6208527791607
 20
1006.621559336111
 30
0
 11
189.6208527791607
 21
1006.762980692348
 31
0
  0
LINE
  8
1
 62
7
 10
184.9893033623888
 20
1005.808386537746
 30
0
 11
184.9893033623888
 21
1005.949807893983
 31
0
  0
LINE
  8
1
 62
7
 10
189.6102461774429
 20
1005.762424596969
 30
0
 11
189.6102461774429
 21
1005.932130224454
 31
0
  0
LINE
  8
1
 62
7
 10
184.9999099641066
 20
1006.808942633125
 30
0
 11
184.9999099641066
 21
1006.63923700564
 31
0
  0
LINE
  8
1
 62
7
 10
189.6102461774429
 20
1005.932130224454
 30
0
 11
187.550021478057
 21
1007.99235492384
 31
0
  0
LINE
  8
1
 62
7
 10
184.9999099641066
 20
1006.63923700564
 30
0
 11
186.8962027863472
 21
1004.7429441834
 31
0
  0
LINE
  8
1
 62
7
 10
189.6208527791607
 20
1006.621559336111
 30
0
 11
189.2708349224733
 21
1006.271541479423
 31
0
  0
LINE
  8
1
 62
7
 10
185.3393212190761
 20
1006.299825750671
 30
0
 11
184.9893033623888
 21
1005.949807893983
 31
0
  0
LINE
  8
1
 62
7
 10
184.9893033623888
 20
1005.808386537746
 30
0
 11
186.2421440531486
 21
1004.555545846986
 31
0
  0
LINE
  8
1
 62
7
 10
184.9150571503642
 20
1006.724089819383
 30
0
 11
184.8766509460286
 21
1006.685683615047
 31
0
  0
LINE
  8
1
 62
7
 10
184.8766509460286
 20
1005.885683615047
 30
0
 11
186.216409574292
 21
1004.545924986784
 31
0
  0
LINE
  8
1
 62
7
 10
189.733505195521
 20
1005.885683615047
 30
0
 11
188.6107878546829
 21
1004.762966274209
 31
0
  0
LINE
  8
1
 62
7
 10
184.9893033623888
 20
982.6215593361106
 30
0
 11
186.3464022790866
 21
983.9786582528084
 31
0
  0
LINE
  8
1
 62
7
 10
189.6208527791607
 20
981.9498078939834
 30
0
 11
188.1723619414874
 21
980.5013170563102
 31
0
  0
LINE
  8
1
 62
7
 10
189.6208527791607
 20
981.8083865377461
 30
0
 11
189.6208527791607
 21
981.9498078939834
 31
0
  0
LINE
  8
1
 62
7
 10
184.9893033623888
 20
982.6215593361106
 30
0
 11
184.9893033623888
 21
982.7629806923479
 31
0
  0
LINE
  8
1
 62
7
 10
189.6102461774429
 20
982.6392370056403
 30
0
 11
189.6102461774429
 21
982.8089426331251
 31
0
  0
LINE
  8
1
 62
7
 10
184.9999099641066
 20
981.9321302244537
 30
0
 11
184.9999099641066
 21
981.7624245969689
 31
0
  0
LINE
  8
1
 62
7
 10
189.6208527791607
 20
981.8083865377461
 30
0
 11
188.2892169915278
 21
980.4767507501132
 31
0
  0
LINE
  8
1
 62
7
 10
189.2708349224733
 20
982.2998257506707
 30
0
 11
189.6208527791607
 21
981.9498078939834
 31
0
  0
LINE
  8
1
 62
7
 10
184.9893033623888
 20
982.6215593361106
 30
0
 11
185.3393212190761
 21
982.2715414794233
 31
0
  0
LINE
  8
1
 62
7
 10
184.8766509460286
 20
981.885683615047
 30
0
 11
184.9150571503642
 21
981.8472774107113
 31
0
  0
LINE
  8
1
 62
7
 10
189.733505195521
 20
981.885683615047
 30
0
 11
188.3180180154833
 21
980.4701964350093
 31
0
  0
LINE
  8
1
 62
3
  6
DASHDOT
 10
214.0990151450748
 20
1001.834501101673
 30
0
 11
214.0990151450747
 21
1010.411844918281
 31
0
  0
LINE
  8
1
 62
3
  6
DASHDOT
 10
218.550197658449
 20
1006.285683615047
 30
0
 11
209.972853841841
 21
1006.285683615047
 31
0
  0
LINE
  8
1
 62
7
 10
213.7631394240111
 20
1003.969908906661
 30
0
 11
211.7832404366888
 21
1005.949807893983
 31
0
  0
LINE
  8
1
 62
7
 10
211.7089942246642
 20
1006.724089819383
 30
0
 11
214.0990151450749
 21
1009.114110739793
 31
0
  0
LINE
  8
1
 62
7
 10
211.7938470384066
 20
1006.808942633125
 30
0
 11
214.6222741631528
 21
1003.980515508379
 31
0
  0
LINE
  8
1
 62
7
 10
216.4041832517429
 20
1005.762424596969
 30
0
 11
213.5757561269967
 21
1008.590851721715
 31
0
  0
LINE
  8
1
 62
7
 10
214.4348908661384
 20
1008.601458323433
 30
0
 11
216.4147898534607
 21
1006.621559336111
 31
0
  0
LINE
  8
1
 62
7
 10
216.4147898534607
 20
1006.621559336111
 30
0
 11
216.4147898534607
 21
1006.762980692348
 31
0
  0
LINE
  8
1
 62
7
 10
214.5763122223757
 20
1008.601458323433
 30
0
 11
214.4348908661384
 21
1008.601458323433
 31
0
  0
LINE
  8
1
 62
7
 10
211.7832404366888
 20
1005.808386537746
 30
0
 11
211.7832404366888
 21
1005.949807893983
 31
0
  0
LINE
  8
1
 62
7
 10
213.7631394240111
 20
1003.969908906661
 30
0
 11
213.6217180677738
 21
1003.969908906661
 31
0
  0
LINE
  8
1
 62
7
 10
213.5757561269967
 20
1008.590851721715
 30
0
 11
213.7454617544814
 21
1008.590851721715
 31
0
  0
LINE
  8
1
 62
7
 10
214.6222741631528
 20
1003.980515508379
 30
0
 11
214.452568535668
 21
1003.980515508379
 31
0
  0
LINE
  8
1
 62
7
 10
216.4041832517429
 20
1005.762424596969
 30
0
 11
216.4041832517429
 21
1005.932130224454
 31
0
  0
LINE
  8
1
 62
7
 10
211.7938470384066
 20
1006.808942633125
 30
0
 11
211.7938470384066
 21
1006.63923700564
 31
0
  0
LINE
  8
1
 62
7
 10
216.4041832517429
 20
1005.932130224454
 30
0
 11
213.7454617544814
 21
1008.590851721715
 31
0
  0
LINE
  8
1
 62
7
 10
213.5757561269967
 20
1008.590851721715
 30
0
 11
213.4990151450748
 21
1008.514110739793
 31
0
  0
LINE
  8
1
 62
7
 10
211.7938470384066
 20
1006.63923700564
 30
0
 11
214.452568535668
 21
1003.980515508379
 31
0
  0
LINE
  8
1
 62
7
 10
214.6222741631528
 20
1003.980515508379
 30
0
 11
214.6990151450748
 21
1004.057256490301
 31
0
  0
LINE
  8
1
 62
7
 10
214.084873009451
 20
1008.251440466746
 30
0
 11
214.4348908661384
 21
1008.601458323433
 31
0
  0
LINE
  8
1
 62
7
 10
214.5763122223757
 20
1008.601458323433
 30
0
 11
216.4147898534607
 21
1006.762980692348
 31
0
  0
LINE
  8
1
 62
7
 10
216.4147898534607
 20
1006.621559336111
 30
0
 11
216.0647719967733
 21
1006.271541479423
 31
0
  0
LINE
  8
1
 62
7
 10
212.1332582933761
 20
1006.299825750671
 30
0
 11
211.7832404366888
 21
1005.949807893983
 31
0
  0
LINE
  8
1
 62
7
 10
211.7832404366888
 20
1005.808386537746
 30
0
 11
213.6217180677738
 21
1003.969908906661
 31
0
  0
LINE
  8
1
 62
7
 10
213.7631394240111
 20
1003.969908906661
 30
0
 11
214.1131572806985
 21
1004.319926763348
 31
0
  0
LINE
  8
1
 62
7
 10
211.7089942246642
 20
1006.724089819383
 30
0
 11
211.6705880203286
 21
1006.685683615047
 31
0
  0
LINE
  8
1
 62
7
 10
214.0990151450749
 20
1009.114110739793
 30
0
 11
216.5274422698211
 21
1006.685683615047
 31
0
  0
LINE
  8
1
 62
7
 10
211.6705880203286
 20
1005.885683615047
 30
0
 11
214.0990151450748
 21
1003.457256490301
 31
0
  0
LINE
  8
1
 62
7
 10
216.5274422698211
 20
1005.885683615047
 30
0
 11
214.0990151450748
 21
1003.457256490301
 31
0
  0
LINE
  8
1
 62
7
 10
211.7832404366888
 20
982.6215593361106
 30
0
 11
213.7631394240111
 21
984.6014583234329
 31
0
  0
LINE
  8
1
 62
7
 10
214.0990151450748
 20
979.4572564903008
 30
0
 11
211.7089942246642
 21
981.8472774107113
 31
0
  0
LINE
  8
1
 62
7
 10
214.6222741631528
 20
984.5908517217151
 30
0
 11
211.7938470384066
 21
981.7624245969689
 31
0
  0
LINE
  8
1
 62
7
 10
213.5757561269967
 20
979.9805155083789
 30
0
 11
216.4041832517429
 21
982.8089426331251
 31
0
  0
LINE
  8
1
 62
7
 10
216.4147898534607
 20
981.9498078939834
 30
0
 11
214.4348908661384
 21
979.9699089066611
 31
0
  0
LINE
  8
1
 62
7
 10
216.4147898534607
 20
981.8083865377461
 30
0
 11
216.4147898534607
 21
981.9498078939834
 31
0
  0
LINE
  8
1
 62
7
 10
214.4348908661384
 20
979.9699089066611
 30
0
 11
214.5763122223757
 21
979.9699089066611
 31
0
  0
LINE
  8
1
 62
7
 10
211.7832404366888
 20
982.6215593361106
 30
0
 11
211.7832404366888
 21
982.7629806923479
 31
0
  0
LINE
  8
1
 62
7
 10
213.6217180677738
 20
984.6014583234329
 30
0
 11
213.7631394240111
 21
984.6014583234329
 31
0
  0
LINE
  8
1
 62
7
 10
213.7454617544814
 20
979.9805155083789
 30
0
 11
213.5757561269967
 21
979.9805155083789
 31
0
  0
LINE
  8
1
 62
7
 10
214.452568535668
 20
984.5908517217151
 30
0
 11
214.6222741631528
 21
984.5908517217151
 31
0
  0
LINE
  8
1
 62
7
 10
216.4041832517429
 20
982.6392370056403
 30
0
 11
216.4041832517429
 21
982.8089426331251
 31
0
  0
LINE
  8
1
 62
7
 10
211.7938470384066
 20
981.9321302244537
 30
0
 11
211.7938470384066
 21
981.7624245969689
 31
0
  0
LINE
  8
1
 62
7
 10
213.7454617544814
 20
979.9805155083789
 30
0
 11
216.4041832517429
 21
982.6392370056403
 31
0
  0
LINE
  8
1
 62
7
 10
213.4990151450748
 20
980.0572564903008
 30
0
 11
213.5757561269967
 21
979.9805155083789
 31
0
  0
LINE
  8
1
 62
7
 10
214.452568535668
 20
984.5908517217151
 30
0
 11
211.7938470384066
 21
981.9321302244537
 31
0
  0
LINE
  8
1
 62
7
 10
214.6990151450748
 20
984.5141107397932
 30
0
 11
214.6222741631528
 21
984.5908517217151
 31
0
  0
LINE
  8
1
 62
7
 10
214.4348908661384
 20
979.9699089066611
 30
0
 11
214.084873009451
 21
980.3199267633485
 31
0
  0
LINE
  8
1
 62
7
 10
216.4147898534607
 20
981.8083865377461
 30
0
 11
214.5763122223757
 21
979.9699089066611
 31
0
  0
LINE
  8
1
 62
7
 10
216.0647719967733
 20
982.2998257506707
 30
0
 11
216.4147898534607
 21
981.9498078939834
 31
0
  0
LINE
  8
1
 62
7
 10
211.7832404366888
 20
982.6215593361106
 30
0
 11
212.1332582933761
 21
982.2715414794233
 31
0
  0
LINE
  8
1
 62
7
 10
213.6217180677738
 20
984.6014583234329
 30
0
 11
211.7832404366888
 21
982.7629806923479
 31
0
  0
LINE
  8
1
 62
7
 10
214.1131572806985
 20
984.2514404667455
 30
0
 11
213.7631394240111
 21
984.6014583234329
 31
0
  0
LINE
  8
1
 62
3
  6
DASHDOT
 10
214.0990151450747
 20
978.1595223118131
 30
0
 11
214.0990151450748
 21
986.7368661284212
 31
0
  0
LINE
  8
1
 62
3
  6
DASHDOT
 10
209.972853841841
 20
982.285683615047
 30
0
 11
218.550197658449
 21
982.285683615047
 31
0
  0
LINE
  8
1
 62
7
 10
215.8990151450748
 20
1017.285683615047
 30
0
 11
220.0990151450748
 21
1017.285683615047
 31
0
  0
LINE
  8
1
 62
3
  6
CENTER
 10
206.896288464925
 20
1013.285683615047
 30
0
 11
222.1590151450748
 21
1013.285683615047
 31
0
  0
LINE
  8
1
 62
3
 10
208.0990151450748
 20
1015.785683615047
 30
0
 11
215.8990151450748
 21
1015.785683615047
 31
0
  0
LINE
  8
1
 62
7
 10
208.0990151450748
 20
1015.285683615047
 30
0
 11
215.8990151450748
 21
1015.285683615047
 31
0
  0
LINE
  8
1
 62
7
 10
208.0990151450748
 20
1011.285683615047
 30
0
 11
215.8990151450748
 21
1011.285683615047
 31
0
  0
LINE
  8
1
 62
3
 10
208.0990151450748
 20
1010.785683615047
 30
0
 11
215.8990151450748
 21
1010.785683615047
 31
0
  0
LINE
  8
1
 62
7
 10
215.8990151450748
 20
1009.285683615047
 30
0
 11
215.8990151450748
 21
1017.285683615047
 31
0
  0
LINE
  8
1
 62
7
 10
220.0990151450748
 20
1009.285683615047
 30
0
 11
215.8990151450748
 21
1009.285683615047
 31
0
  0
LINE
  8
1
 62
7
 10
220.0990151450748
 20
971.285683615047
 30
0
 11
215.8990151450748
 21
971.285683615047
 31
0
  0
LINE
  8
1
 62
7
 10
215.8990151450748
 20
971.285683615047
 30
0
 11
215.8990151450748
 21
979.285683615047
 31
0
  0
LINE
  8
1
 62
7
 10
215.8990151450748
 20
979.285683615047
 30
0
 11
220.0990151450748
 21
979.285683615047
 31
0
  0
LINE
  8
1
 62
7
 10
215.8990151450748
 20
973.285683615047
 30
0
 11
208.0990151450748
 21
973.285683615047
 31
0
  0
LINE
  8
1
 62
7
 10
215.8990151450748
 20
977.285683615047
 30
0
 11
208.0990151450748
 21
977.285683615047
 31
0
  0
LINE
  8
1
 62
3
  6
CENTER
 10
222.1590151450748
 20
975.285683615047
 30
0
 11
206.896288464925
 21
975.285683615047
 31
0
  0
LINE
  8
1
 62
3
 10
215.8990151450748
 20
972.785683615047
 30
0
 11
208.0990151450748
 21
972.785683615047
 31
0
  0
LINE
  8
1
 62
3
 10
215.8990151450748
 20
977.785683615047
 30
0
 11
208.0990151450748
 21
977.785683615047
 31
0
  0
LINE
  8
1
 62
7
 10
212.7990151450748
 20
990.285683615047
 30
0
 11
208.5990151450748
 21
990.285683615047
 31
0
  0
LINE
  8
1
 62
7
 10
212.7990151450748
 20
998.285683615047
 30
0
 11
212.7990151450748
 21
990.285683615047
 31
0
  0
LINE
  8
1
 62
7
 10
208.5990151450748
 20
998.285683615047
 30
0
 11
212.7990151450748
 21
998.285683615047
 31
0
  0
LINE
  8
1
 62
7
 10
220.5990151450748
 20
992.285683615047
 30
0
 11
212.7990151450748
 21
992.285683615047
 31
0
  0
LINE
  8
1
 62
7
 10
220.5990151450748
 20
996.285683615047
 30
0
 11
212.7990151450748
 21
996.285683615047
 31
0
  0
LINE
  8
1
 62
3
  6
CENTER
 10
222.1590151450748
 20
994.285683615047
 30
0
 11
206.896288464925
 21
994.285683615047
 31
0
  0
LINE
  8
1
 62
3
 10
220.5990151450748
 20
991.785683615047
 30
0
 11
212.7990151450748
 21
991.785683615047
 31
0
  0
LINE
  8
1
 62
3
 10
220.5990151450748
 20
996.785683615047
 30
0
 11
212.7990151450748
 21
996.785683615047
 31
0
  0
LINE
  8
1
 62
7
 10
208.0990151450748
 20
971.285683615047
 30
0
 11
209.0990151450748
 21
970.285683615047
 31
0
  0
LINE
  8
1
 62
7
 10
219.0990151450748
 20
970.285683615047
 30
0
 11
220.0990151450748
 21
971.285683615047
 31
0
  0
LINE
  8
1
 62
7
 10
220.0990151450748
 20
980.885683615047
 30
0
 11
219.0990151450748
 21
981.885683615047
 31
0
  0
LINE
  8
1
 62
7
 10
209.0990151450748
 20
981.885683615047
 30
0
 11
208.0990151450748
 21
980.885683615047
 31
0
  0
LINE
  8
1
 62
7
 10
208.0990151450748
 20
1007.685683615047
 30
0
 11
209.0990151450748
 21
1006.685683615047
 31
0
  0
LINE
  8
1
 62
7
 10
219.0990151450748
 20
1006.685683615047
 30
0
 11
220.0990151450748
 21
1007.685683615047
 31
0
  0
LINE
  8
1
 62
7
 10
220.0990151450748
 20
1017.285683615047
 30
0
 11
219.0990151450748
 21
1018.285683615047
 31
0
  0
LINE
  8
1
 62
7
 10
209.0990151450748
 20
1018.285683615047
 30
0
 11
208.0990151450748
 21
1017.285683615047
 31
0
  0
LINE
  8
1
 62
7
 10
211.6705880203286
 20
981.885683615047
 30
0
 11
209.0990151450748
 21
981.885683615047
 31
0
  0
LINE
  8
1
 62
7
 10
208.0990151450748
 20
980.885683615047
 30
0
 11
208.0990151450748
 21
971.285683615047
 31
0
  0
LINE
  8
1
 62
7
 10
219.0990151450748
 20
970.285683615047
 30
0
 11
209.0990151450748
 21
970.285683615047
 31
0
  0
LINE
  8
1
 62
7
 10
220.0990151450748
 20
980.885683615047
 30
0
 11
220.0990151450748
 21
971.285683615047
 31
0
  0
LINE
  8
1
 62
7
 10
216.5274422698211
 20
981.885683615047
 30
0
 11
219.0990151450748
 21
981.885683615047
 31
0
  0
LINE
  8
1
 62
7
 10
216.5274422698211
 20
1006.685683615047
 30
0
 11
219.0990151450748
 21
1006.685683615047
 31
0
  0
LINE
  8
1
 62
7
 10
220.0990151450748
 20
1017.285683615047
 30
0
 11
220.0990151450748
 21
1007.685683615047
 31
0
  0
LINE
  8
1
 62
7
 10
209.0990151450748
 20
1018.285683615047
 30
0
 11
219.0990151450748
 21
1018.285683615047
 31
0
  0
LINE
  8
1
 62
7
 10
208.0990151450748
 20
1017.285683615047
 30
0
 11
208.0990151450748
 21
1007.685683615047
 31
0
  0
LINE
  8
1
 62
7
 10
211.6705880203286
 20
1006.685683615047
 30
0
 11
209.0990151450748
 21
1006.685683615047
 31
0
  0
LINE
  8
1
 62
7
 10
211.6705880203286
 20
981.885683615047
 30
0
 11
211.7089942246642
 21
981.8472774107113
 31
0
  0
LINE
  8
1
 62
7
 10
216.5274422698211
 20
981.885683615047
 30
0
 11
214.0990151450748
 21
979.4572564903008
 31
0
  0
LINE
  8
1
 62
7
 10
219.7990151450748
 20
982.685683615047
 30
0
 11
216.5274422698211
 21
982.685683615047
 31
0
  0
LINE
  8
1
 62
7
 10
209.3990151450748
 20
982.685683615047
 30
0
 11
211.6705880203286
 21
982.685683615047
 31
0
  0
LINE
  8
1
 62
7
 10
208.5990151450748
 20
983.4856836150469
 30
0
 11
209.3990151450748
 21
982.685683615047
 31
0
  0
LINE
  8
1
 62
7
 10
219.7990151450748
 20
982.685683615047
 30
0
 11
220.5990151450748
 21
983.4856836150469
 31
0
  0
LINE
  8
1
 62
7
 10
214.0990151450748
 20
985.1141107397932
 30
0
 11
211.6705880203286
 21
982.685683615047
 31
0
  0
LINE
  8
1
 62
7
 10
214.0990151450748
 20
985.1141107397932
 30
0
 11
216.5274422698211
 21
982.685683615047
 31
0
  0
LINE
  8
1
 62
7
 10
220.5990151450748
 20
1005.085683615047
 30
0
 11
219.7990151450748
 21
1005.885683615047
 31
0
  0
LINE
  8
1
 62
7
 10
209.3990151450748
 20
1005.885683615047
 30
0
 11
208.5990151450748
 21
1005.085683615047
 31
0
  0
LINE
  8
1
 62
7
 10
211.6705880203286
 20
1005.885683615047
 30
0
 11
209.3990151450748
 21
1005.885683615047
 31
0
  0
LINE
  8
1
 62
7
 10
208.5990151450748
 20
1005.085683615047
 30
0
 11
208.5990151450748
 21
983.4856836150469
 31
0
  0
LINE
  8
1
 62
7
 10
220.5990151450748
 20
1005.085683615047
 30
0
 11
220.5990151450748
 21
983.4856836150469
 31
0
  0
LINE
  8
1
 62
7
 10
216.5274422698211
 20
1005.885683615047
 30
0
 11
219.7990151450748
 21
1005.885683615047
 31
0
  0
LINE
  8
1
 62
7
 10
33.88723877944017
 20
971.585683615047
 30
0
 11
33.88723877944017
 21
980.585683615047
 31
0
  0
LINE
  8
1
 62
7
 10
35.58723877944016
 20
971.585683615047
 30
0
 11
33.88723877944017
 21
971.585683615047
 31
0
  0
LINE
  8
1
 62
7
 10
33.88723877944017
 20
971.585683615047
 30
0
 11
33.08723877944016
 21
972.3856836150469
 31
0
  0
LINE
  8
1
 62
7
 10
33.08723877944016
 20
972.3856836150469
 30
0
 11
33.08723877944016
 21
979.785683615047
 31
0
  0
LINE
  8
1
 62
7
 10
33.08723877944016
 20
979.785683615047
 30
0
 11
33.88723877944017
 21
980.585683615047
 31
0
  0
LINE
  8
1
 62
7
 10
33.88723877944017
 20
980.585683615047
 30
0
 11
35.58723877944016
 21
980.585683615047
 31
0
  0
LINE
  8
1
 62
7
 10
33.88723877944017
 20
983.7356836150469
 30
0
 11
33.88723877944017
 21
992.7356836150469
 31
0
  0
LINE
  8
1
 62
7
 10
35.58723877944016
 20
983.7356836150469
 30
0
 11
33.88723877944017
 21
983.7356836150469
 31
0
  0
LINE
  8
1
 62
7
 10
33.88723877944017
 20
983.7356836150469
 30
0
 11
33.08723877944016
 21
984.5356836150469
 31
0
  0
LINE
  8
1
 62
7
 10
33.08723877944016
 20
984.5356836150469
 30
0
 11
33.08723877944016
 21
991.935683615047
 31
0
  0
LINE
  8
1
 62
7
 10
33.08723877944016
 20
991.935683615047
 30
0
 11
33.88723877944017
 21
992.7356836150469
 31
0
  0
LINE
  8
1
 62
7
 10
33.88723877944017
 20
992.7356836150469
 30
0
 11
35.58723877944016
 21
992.7356836150469
 31
0
  0
LINE
  8
1
 62
7
 10
33.88723877944017
 20
995.8356836150471
 30
0
 11
33.88723877944017
 21
1004.835683615047
 31
0
  0
LINE
  8
1
 62
7
 10
35.58723877944016
 20
995.8356836150471
 30
0
 11
33.88723877944017
 21
995.8356836150471
 31
0
  0
LINE
  8
1
 62
7
 10
33.88723877944017
 20
995.8356836150471
 30
0
 11
33.08723877944016
 21
996.635683615047
 31
0
  0
LINE
  8
1
 62
7
 10
33.08723877944016
 20
996.635683615047
 30
0
 11
33.08723877944016
 21
1004.035683615047
 31
0
  0
LINE
  8
1
 62
7
 10
33.08723877944016
 20
1004.035683615047
 30
0
 11
33.88723877944017
 21
1004.835683615047
 31
0
  0
LINE
  8
1
 62
7
 10
33.88723877944017
 20
1004.835683615047
 30
0
 11
35.58723877944016
 21
1004.835683615047
 31
0
  0
LINE
  8
1
 62
7
 10
33.88723877944017
 20
1007.985683615047
 30
0
 11
33.88723877944017
 21
1016.985683615047
 31
0
  0
LINE
  8
1
 62
7
 10
35.58723877944016
 20
1007.985683615047
 30
0
 11
33.88723877944017
 21
1007.985683615047
 31
0
  0
LINE
  8
1
 62
7
 10
33.88723877944017
 20
1007.985683615047
 30
0
 11
33.08723877944016
 21
1008.785683615047
 31
0
  0
LINE
  8
1
 62
7
 10
33.08723877944016
 20
1008.785683615047
 30
0
 11
33.08723877944016
 21
1016.185683615047
 31
0
  0
LINE
  8
1
 62
7
 10
33.08723877944016
 20
1016.185683615047
 30
0
 11
33.88723877944017
 21
1016.985683615047
 31
0
  0
LINE
  8
1
 62
7
 10
33.88723877944017
 20
1016.985683615047
 30
0
 11
35.58723877944016
 21
1016.985683615047
 31
0
  0
LINE
  8
1
 62
7
 10
157.2872387794401
 20
980.585683615047
 30
0
 11
157.2872387794401
 21
971.585683615047
 31
0
  0
LINE
  8
1
 62
7
 10
157.2872387794401
 20
971.585683615047
 30
0
 11
155.5872387794401
 21
971.585683615047
 31
0
  0
LINE
  8
1
 62
7
 10
158.0872387794401
 20
972.3856836150469
 30
0
 11
157.2872387794401
 21
971.585683615047
 31
0
  0
LINE
  8
1
 62
7
 10
158.0872387794401
 20
979.785683615047
 30
0
 11
158.0872387794401
 21
972.3856836150469
 31
0
  0
LINE
  8
1
 62
7
 10
157.2872387794401
 20
980.585683615047
 30
0
 11
158.0872387794401
 21
979.785683615047
 31
0
  0
LINE
  8
1
 62
7
 10
155.5872387794401
 20
980.585683615047
 30
0
 11
157.2872387794401
 21
980.585683615047
 31
0
  0
LINE
  8
1
 62
7
 10
157.2872387794401
 20
1016.985683615047
 30
0
 11
157.2872387794401
 21
1007.985683615047
 31
0
  0
LINE
  8
1
 62
7
 10
157.2872387794401
 20
1007.985683615047
 30
0
 11
155.5872387794401
 21
1007.985683615047
 31
0
  0
LINE
  8
1
 62
7
 10
158.0872387794401
 20
1008.785683615047
 30
0
 11
157.2872387794401
 21
1007.985683615047
 31
0
  0
LINE
  8
1
 62
7
 10
158.0872387794401
 20
1016.185683615047
 30
0
 11
158.0872387794401
 21
1008.785683615047
 31
0
  0
LINE
  8
1
 62
7
 10
157.2872387794401
 20
1016.985683615047
 30
0
 11
158.0872387794401
 21
1016.185683615047
 31
0
  0
LINE
  8
1
 62
7
 10
155.5872387794401
 20
1016.985683615047
 30
0
 11
157.2872387794401
 21
1016.985683615047
 31
0
  0
LINE
  8
1
 62
7
 10
157.2872387794401
 20
1004.835683615047
 30
0
 11
157.2872387794401
 21
995.8356836150471
 31
0
  0
LINE
  8
1
 62
7
 10
157.2872387794401
 20
995.8356836150471
 30
0
 11
155.5872387794401
 21
995.8356836150471
 31
0
  0
LINE
  8
1
 62
7
 10
158.0872387794401
 20
996.635683615047
 30
0
 11
157.2872387794401
 21
995.8356836150471
 31
0
  0
LINE
  8
1
 62
7
 10
158.0872387794401
 20
1004.035683615047
 30
0
 11
158.0872387794401
 21
996.635683615047
 31
0
  0
LINE
  8
1
 62
7
 10
157.2872387794401
 20
1004.835683615047
 30
0
 11
158.0872387794401
 21
1004.035683615047
 31
0
  0
LINE
  8
1
 62
7
 10
155.5872387794401
 20
1004.835683615047
 30
0
 11
157.2872387794401
 21
1004.835683615047
 31
0
  0
LINE
  8
1
 62
7
 10
157.2872387794401
 20
992.7356836150469
 30
0
 11
157.2872387794401
 21
983.7356836150469
 31
0
  0
LINE
  8
1
 62
7
 10
157.2872387794401
 20
983.7356836150469
 30
0
 11
155.5872387794401
 21
983.7356836150469
 31
0
  0
LINE
  8
1
 62
7
 10
158.0872387794401
 20
984.5356836150469
 30
0
 11
157.2872387794401
 21
983.7356836150469
 31
0
  0
LINE
  8
1
 62
7
 10
158.0872387794401
 20
991.935683615047
 30
0
 11
158.0872387794401
 21
984.5356836150469
 31
0
  0
LINE
  8
1
 62
7
 10
157.2872387794401
 20
992.7356836150469
 30
0
 11
158.0872387794401
 21
991.935683615047
 31
0
  0
LINE
  8
1
 62
7
 10
155.5872387794401
 20
992.7356836150469
 30
0
 11
157.2872387794401
 21
992.7356836150469
 31
0
  0
LINE
  8
1
 62
7
 10
181.3050780707748
 20
971.285683615047
 30
0
 11
182.3050780707748
 21
970.285683615047
 31
0
  0
LINE
  8
1
 62
7
 10
192.3050780707748
 20
970.285683615047
 30
0
 11
193.3050780707748
 21
971.285683615047
 31
0
  0
LINE
  8
1
 62
7
 10
193.3050780707748
 20
980.885683615047
 30
0
 11
192.3050780707748
 21
981.885683615047
 31
0
  0
LINE
  8
1
 62
7
 10
182.3050780707748
 20
981.885683615047
 30
0
 11
181.3050780707748
 21
980.885683615047
 31
0
  0
LINE
  8
1
 62
7
 10
181.3050780707748
 20
1007.685683615047
 30
0
 11
182.3050780707748
 21
1006.685683615047
 31
0
  0
LINE
  8
1
 62
7
 10
192.3050780707748
 20
1006.685683615047
 30
0
 11
193.3050780707748
 21
1007.685683615047
 31
0
  0
LINE
  8
1
 62
7
 10
193.3050780707748
 20
1017.285683615047
 30
0
 11
192.3050780707748
 21
1018.285683615047
 31
0
  0
LINE
  8
1
 62
7
 10
182.3050780707748
 20
1018.285683615047
 30
0
 11
181.3050780707748
 21
1017.285683615047
 31
0
  0
LINE
  8
1
 62
7
 10
184.8766509460286
 20
981.885683615047
 30
0
 11
182.3050780707748
 21
981.885683615047
 31
0
  0
LINE
  8
1
 62
7
 10
181.3050780707748
 20
980.885683615047
 30
0
 11
181.3050780707748
 21
971.285683615047
 31
0
  0
LINE
  8
1
 62
7
 10
192.3050780707748
 20
970.285683615047
 30
0
 11
182.3050780707748
 21
970.285683615047
 31
0
  0
LINE
  8
1
 62
7
 10
193.3050780707748
 20
980.885683615047
 30
0
 11
193.3050780707748
 21
971.285683615047
 31
0
  0
LINE
  8
1
 62
7
 10
189.733505195521
 20
981.885683615047
 30
0
 11
192.3050780707748
 21
981.885683615047
 31
0
  0
LINE
  8
1
 62
7
 10
189.733505195521
 20
1006.685683615047
 30
0
 11
192.3050780707748
 21
1006.685683615047
 31
0
  0
LINE
  8
1
 62
7
 10
193.3050780707748
 20
1017.285683615047
 30
0
 11
193.3050780707748
 21
1007.685683615047
 31
0
  0
LINE
  8
1
 62
7
 10
182.3050780707748
 20
1018.285683615047
 30
0
 11
192.3050780707748
 21
1018.285683615047
 31
0
  0
LINE
  8
1
 62
7
 10
181.3050780707748
 20
1017.285683615047
 30
0
 11
181.3050780707748
 21
1007.685683615047
 31
0
  0
LINE
  8
1
 62
7
 10
184.8766509460286
 20
1006.685683615047
 30
0
 11
182.3050780707748
 21
1006.685683615047
 31
0
  0
LINE
  8
1
 62
7
 10
151.9862182650064
 20
1007.485683615047
 30
0
 11
122.9082249584876
 21
1007.485683615047
 31
0
  0
LINE
  8
1
 62
7
 10
151.9862182650065
 20
1017.485683615047
 30
0
 11
124.4996099786086
 21
1017.485683615047
 31
0
  0
LINE
  8
1
 62
7
 10
39.18825929387391
 20
1007.485683615047
 30
0
 11
118.6276359836909
 21
1007.485683615047
 31
0
  0
LINE
  8
1
 62
7
 10
39.1882592938738
 20
1017.485683615047
 30
0
 11
120.2910067305437
 21
1017.485683615047
 31
0
  0
LINE
  8
1
 62
7
 10
116.4156834228078
 20
971.085683615047
 30
0
 11
151.9862182650065
 21
971.085683615047
 31
0
  0
LINE
  8
1
 62
7
 10
151.9862182650064
 20
981.0856836150471
 30
0
 11
117.9699453439167
 21
981.0856836150471
 31
0
  0
LINE
  8
1
 62
7
 10
112.3539769752648
 20
971.085683615047
 30
0
 11
39.1882592938738
 21
971.085683615047
 31
0
  0
LINE
  8
1
 62
7
 10
39.18825929387391
 20
981.0856836150471
 30
0
 11
113.8492000791631
 21
981.0856836150471
 31
0
  0
LINE
  8
1
 62
7
 10
39.1882592938738
 20
971.085683615047
 30
0
 11
39.1882592938738
 21
970.285683615047
 31
0
  0
LINE
  8
1
 62
7
 10
39.18825929387391
 20
981.0856836150471
 30
0
 11
39.18825929387391
 21
981.885683615047
 31
0
  0
LINE
  8
1
 62
7
 10
39.18825929387391
 20
1007.485683615047
 30
0
 11
39.18825929387391
 21
1006.685683615047
 31
0
  0
LINE
  8
1
 62
7
 10
39.1882592938738
 20
1017.485683615047
 30
0
 11
39.1882592938738
 21
1018.285683615047
 31
0
  0
LINE
  8
1
 62
7
 10
151.9862182650065
 20
1017.485683615047
 30
0
 11
151.9862182650065
 21
1018.285683615047
 31
0
  0
LINE
  8
1
 62
7
 10
151.9862182650064
 20
1007.485683615047
 30
0
 11
151.9862182650064
 21
1006.685683615047
 31
0
  0
LINE
  8
1
 62
7
 10
151.9862182650065
 20
971.085683615047
 30
0
 11
151.9862182650065
 21
970.285683615047
 31
0
  0
LINE
  8
1
 62
7
 10
151.9862182650064
 20
981.0856836150471
 30
0
 11
151.9862182650064
 21
981.885683615047
 31
0
  0
LINE
  8
1
 62
3
  6
CENTER
 10
135.5872387794401
 20
981.685683615047
 30
0
 11
135.5872387794401
 21
968.885683615047
 31
0
  0
LINE
  8
1
 62
3
  6
CENTER
 10
141.9872387794401
 20
975.285683615047
 30
0
 11
129.1872387794401
 21
975.285683615047
 31
0
  0
LINE
  8
1
 62
3
  6
CENTER
 10
95.58723877944013
 20
981.685683615047
 30
0
 11
95.58723877944013
 21
968.885683615047
 31
0
  0
LINE
  8
1
 62
3
  6
CENTER
 10
101.9872387794401
 20
975.285683615047
 30
0
 11
89.18723877944012
 21
975.285683615047
 31
0
  0
LINE
  8
1
 62
3
  6
CENTER
 10
55.58723877944016
 20
981.685683615047
 30
0
 11
55.58723877944016
 21
968.885683615047
 31
0
  0
LINE
  8
1
 62
3
  6
CENTER
 10
61.98723877944015
 20
975.285683615047
 30
0
 11
49.18723877944016
 21
975.285683615047
 31
0
  0
LINE
  8
1
 62
3
  6
CENTER
 10
135.5872387794401
 20
1019.685683615047
 30
0
 11
135.5872387794401
 21
1006.885683615047
 31
0
  0
LINE
  8
1
 62
3
  6
CENTER
 10
141.9872387794401
 20
1013.285683615047
 30
0
 11
129.1872387794401
 21
1013.285683615047
 31
0
  0
LINE
  8
1
 62
3
  6
CENTER
 10
95.58723877944013
 20
1019.685683615047
 30
0
 11
95.58723877944013
 21
1006.885683615047
 31
0
  0
LINE
  8
1
 62
3
  6
CENTER
 10
101.9872387794401
 20
1013.285683615047
 30
0
 11
89.18723877944012
 21
1013.285683615047
 31
0
  0
LINE
  8
1
 62
3
  6
CENTER
 10
55.58723877944016
 20
1019.685683615047
 30
0
 11
55.58723877944016
 21
1006.885683615047
 31
0
  0
LINE
  8
1
 62
3
  6
CENTER
 10
61.98723877944016
 20
1013.285683615047
 30
0
 11
49.18723877944016
 21
1013.285683615047
 31
0
  0
LINE
  8
1
 62
7
 10
154.5872387794401
 20
981.885683615047
 30
0
 11
155.5872387794401
 21
980.885683615047
 31
0
  0
LINE
  8
1
 62
7
 10
155.5872387794401
 20
971.285683615047
 30
0
 11
154.5872387794401
 21
970.285683615047
 31
0
  0
LINE
  8
1
 62
7
 10
36.58723877944016
 20
970.285683615047
 30
0
 11
35.58723877944016
 21
971.285683615047
 31
0
  0
LINE
  8
1
 62
7
 10
35.58723877944016
 20
980.885683615047
 30
0
 11
36.58723877944016
 21
981.885683615047
 31
0
  0
LINE
  8
1
 62
7
 10
118.3200148144592
 20
981.885683615047
 30
0
 11
154.5872387794401
 21
981.885683615047
 31
0
  0
LINE
  8
1
 62
7
 10
155.5872387794401
 20
971.285683615047
 30
0
 11
155.5872387794401
 21
980.885683615047
 31
0
  0
LINE
  8
1
 62
7
 10
116.274621838241
 20
970.285683615047
 30
0
 11
154.5872387794401
 21
970.285683615047
 31
0
  0
LINE
  8
1
 62
3
  6
DASHDOT
 10
111.419249460672
 20
965.7845804552405
 30
0
 11
121.6314538122095
 21
1023.700869332336
 31
0
  0
LINE
  8
1
 62
7
 10
112.212915390698
 20
970.285683615047
 30
0
 11
36.58723877944016
 21
970.285683615047
 31
0
  0
LINE
  8
1
 62
7
 10
35.58723877944016
 20
980.885683615047
 30
0
 11
35.58723877944016
 21
971.285683615047
 31
0
  0
LINE
  8
1
 62
7
 10
114.2583083669162
 20
981.885683615047
 30
0
 11
36.58723877944016
 21
981.885683615047
 31
0
  0
LINE
  8
1
 62
7
 10
154.5872387794401
 20
1006.685683615047
 30
0
 11
155.5872387794401
 21
1007.685683615047
 31
0
  0
LINE
  8
1
 62
7
 10
155.5872387794401
 20
1017.285683615047
 30
0
 11
154.5872387794401
 21
1018.285683615047
 31
0
  0
LINE
  8
1
 62
7
 10
36.58723877944016
 20
1006.685683615047
 30
0
 11
35.58723877944016
 21
1007.685683615047
 31
0
  0
LINE
  8
1
 62
7
 10
36.58723877944016
 20
1018.285683615047
 30
0
 11
35.58723877944016
 21
1017.285683615047
 31
0
  0
LINE
  8
1
 62
7
 10
122.6929239360291
 20
1006.685683615047
 30
0
 11
154.5872387794401
 21
1006.685683615047
 31
0
  0
LINE
  8
1
 62
7
 10
155.5872387794401
 20
1017.285683615047
 30
0
 11
155.5872387794401
 21
1007.685683615047
 31
0
  0
LINE
  8
1
 62
7
 10
124.7383169122473
 20
1018.285683615047
 30
0
 11
154.5872387794401
 21
1018.285683615047
 31
0
  0
LINE
  8
1
 62
7
 10
118.6312174884861
 20
1006.685683615047
 30
0
 11
36.58723877944016
 21
1006.685683615047
 31
0
  0
LINE
  8
1
 62
7
 10
120.6766104647043
 20
1018.285683615047
 30
0
 11
36.58723877944016
 21
1018.285683615047
 31
0
  0
LINE
  8
1
 62
7
 10
35.58723877944016
 20
1017.285683615047
 30
0
 11
35.58723877944016
 21
1007.685683615047
 31
0
  0
LINE
  8
1
 62
7
 10
114.399369951483
 20
982.685683615047
 30
0
 11
36.38723877944017
 21
982.685683615047
 31
0
  0
LINE
  8
1
 62
3
  6
DASHDOT
 10
125.6931602597525
 20
1023.700869332336
 30
0
 11
115.480955908215
 21
965.7845804552405
 31
0
  0
LINE
  8
1
 62
4
  6
CENTER
 10
176.300868554308
 20
994.285683615047
 30
0
 11
196.1854776540192
 21
994.285683615047
 31
0
  0
LINE
  8
1
 62
7
 10
122.3800088941445
 20
1005.885683615047
 30
0
 11
154.7872387794401
 21
1005.885683615047
 31
0
  0
LINE
  8
1
 62
3
  6
CENTER
 10
115.5872387794401
 20
998.285683615047
 30
0
 11
115.5872387794401
 21
990.285683615047
 31
0
  0
LINE
  8
1
 62
3
  6
CENTER
 10
75.58723877944013
 20
998.285683615047
 30
0
 11
75.58723877944013
 21
990.285683615047
 31
0
  0
LINE
  8
1
 62
4
  6
CENTER
 10
29.61221554897196
 20
994.285683615047
 30
0
 11
162.0194582395431
 21
994.285683615047
 31
0
  0
LINE
  8
1
 62
7
 10
193.0050780707748
 20
982.685683615047
 30
0
 11
189.733505195521
 21
982.685683615047
 31
0
  0
LINE
  8
1
 62
7
 10
182.6050780707748
 20
982.685683615047
 30
0
 11
184.8766509460286
 21
982.685683615047
 31
0
  0
LINE
  8
1
 62
7
 10
155.5872387794401
 20
983.4856836150469
 30
0
 11
154.7872387794401
 21
982.685683615047
 31
0
  0
LINE
  8
1
 62
7
 10
35.58723877944016
 20
983.4856836150469
 30
0
 11
36.38723877944017
 21
982.685683615047
 31
0
  0
LINE
  8
1
 62
7
 10
181.8050780707748
 20
983.4856836150469
 30
0
 11
182.6050780707748
 21
982.685683615047
 31
0
  0
LINE
  8
1
 62
7
 10
193.0050780707748
 20
982.685683615047
 30
0
 11
193.8050780707748
 21
983.4856836150469
 31
0
  0
LINE
  8
1
 62
7
 10
154.7872387794401
 20
982.685683615047
 30
0
 11
118.6329298563438
 21
982.685683615047
 31
0
  0
LINE
  8
1
 62
7
 10
36.38723877944017
 20
1005.885683615047
 30
0
 11
118.6276359836909
 21
1005.885683615047
 31
0
  0
LINE
  8
1
 62
3
  6
CENTER
 10
55.58723877944016
 20
1000.685683615047
 30
0
 11
55.58723877944016
 21
987.885683615047
 31
0
  0
LINE
  8
1
 62
3
  6
CENTER
 10
95.58723877944013
 20
1000.685683615047
 30
0
 11
95.58723877944013
 21
987.885683615047
 31
0
  0
LINE
  8
1
 62
3
  6
CENTER
 10
135.5872387794401
 20
1000.685683615047
 30
0
 11
135.5872387794401
 21
987.885683615047
 31
0
  0
LINE
  8
1
 62
7
 10
193.8050780707748
 20
1005.085683615047
 30
0
 11
193.0050780707748
 21
1005.885683615047
 31
0
  0
LINE
  8
1
 62
7
 10
182.6050780707748
 20
1005.885683615047
 30
0
 11
181.8050780707748
 21
1005.085683615047
 31
0
  0
LINE
  8
1
 62
7
 10
36.38723877944017
 20
1005.885683615047
 30
0
 11
35.58723877944016
 21
1005.085683615047
 31
0
  0
LINE
  8
1
 62
7
 10
154.7872387794401
 20
1005.885683615047
 30
0
 11
155.5872387794401
 21
1005.085683615047
 31
0
  0
LINE
  8
1
 62
7
 10
184.8766509460286
 20
1005.885683615047
 30
0
 11
182.6050780707748
 21
1005.885683615047
 31
0
  0
LINE
  8
1
 62
7
 10
181.8050780707748
 20
1005.085683615047
 30
0
 11
181.8050780707748
 21
983.4856836150469
 31
0
  0
LINE
  8
1
 62
7
 10
193.8050780707748
 20
1005.085683615047
 30
0
 11
193.8050780707748
 21
983.4856836150469
 31
0
  0
LINE
  8
1
 62
7
 10
189.733505195521
 20
1005.885683615047
 30
0
 11
193.0050780707748
 21
1005.885683615047
 31
0
  0
LINE
  8
1
 62
7
 10
155.5872387794401
 20
1005.085683615047
 30
0
 11
155.5872387794401
 21
983.4856836150469
 31
0
  0
LINE
  8
1
 62
7
 10
35.58723877944016
 20
1005.085683615047
 30
0
 11
35.58723877944016
 21
983.4856836150469
 31
0
  0
LINE
  8
1
 62
4
  6
CENTER
 10
33.08723877944016
 20
982.2998257506707
 30
0
 11
158.0872387794401
 21
982.2998257506707
 31
0
  0
LINE
  8
1
 62
4
  6
CENTER
 10
33.08723877944016
 20
1006.271541479423
 30
0
 11
158.0872387794401
 21
1006.271541479423
 31
0
  0
ARC
  8
1
 62
7
 10
115.5872387794401
 20
994.285683615047
 30
0
 40
2.500000000000068
 50
60.25719219766946
 51
279.7428078023332
  0
ARC
  8
1
 62
7
 10
147.0872387794401
 20
976.085683615047
 30
0
 40
7.00000000000003
 50
314.4153085971932
 51
45.58469140280793
  0
ARC
  8
1
 62
7
 10
147.0872387794401
 20
1012.485683615047
 30
0
 40
6.999999999999972
 50
314.4153085971927
 51
45.58469140280677
  0
ARC
  8
1
 62
7
 10
44.08723877944016
 20
976.085683615047
 30
0
 40
7.000000000000008
 50
134.4153085971917
 51
225.584691402807
  0
ARC
  8
1
 62
7
 10
44.08723877944016
 20
1012.485683615047
 30
0
 40
7.000000000000006
 50
134.415308597193
 51
225.5846914028076
  0
CIRCLE
  8
1
 62
7
 10
187.3050780707748
 20
1012.485683615047
 30
0
 40
3.699999999999343
  0
CIRCLE
  8
1
 62
7
 10
187.8050780707748
 20
1000.335683615047
 30
0
 40
3.699999999999343
  0
CIRCLE
  8
1
 62
7
 10
187.3050780707748
 20
976.085683615047
 30
0
 40
3.699999999999456
  0
CIRCLE
  8
1
 62
7
 10
187.8050780707748
 20
988.2356836150469
 30
0
 40
3.699999999999118
  0
CIRCLE
  8
1
 62
7
 10
187.8050780707748
 20
988.2356836150469
 30
0
 40
4.499999999999965
  0
CIRCLE
  8
1
 62
7
 10
187.8050780707748
 20
1000.335683615047
 30
0
 40
4.500000000000417
  0
CIRCLE
  8
1
 62
7
 10
187.3050780707748
 20
976.085683615047
 30
0
 40
4.499999999999965
  0
CIRCLE
  8
1
 62
7
 10
187.3050780707748
 20
1012.485683615047
 30
0
 40
4.500000000000417
  0
CIRCLE
  8
1
 62
7
  6
DASHED
 10
135.5872387794401
 20
975.285683615047
 30
0
 40
4
  0
CIRCLE
  8
1
 62
7
  6
DASHED
 10
95.58723877944013
 20
975.285683615047
 30
0
 40
4
  0
CIRCLE
  8
1
 62
7
  6
DASHED
 10
55.58723877944016
 20
975.285683615047
 30
0
 40
4
  0
CIRCLE
  8
1
 62
7
  6
DASHED
 10
135.5872387794401
 20
1013.285683615047
 30
0
 40
4
  0
CIRCLE
  8
1
 62
7
  6
DASHED
 10
95.58723877944013
 20
1013.285683615047
 30
0
 40
4
  0
CIRCLE
  8
1
 62
7
  6
DASHED
 10
55.58723877944016
 20
1013.285683615047
 30
0
 40
4
  0
CIRCLE
  8
1
 62
3
 10
135.5872387794401
 20
975.285683615047
 30
0
 40
2.5
  0
CIRCLE
  8
1
 62
7
 10
135.5872387794401
 20
975.285683615047
 30
0
 40
2
  0
CIRCLE
  8
1
 62
3
 10
95.58723877944013
 20
975.285683615047
 30
0
 40
2.5
  0
CIRCLE
  8
1
 62
7
 10
95.58723877944013
 20
975.285683615047
 30
0
 40
2
  0
CIRCLE
  8
1
 62
3
 10
55.58723877944016
 20
975.285683615047
 30
0
 40
2.5
  0
CIRCLE
  8
1
 62
7
 10
55.58723877944016
 20
975.285683615047
 30
0
 40
2
  0
CIRCLE
  8
1
 62
3
 10
135.5872387794401
 20
1013.285683615047
 30
0
 40
2.5
  0
CIRCLE
  8
1
 62
7
 10
135.5872387794401
 20
1013.285683615047
 30
0
 40
2
  0
CIRCLE
  8
1
 62
3
 10
95.58723877944013
 20
1013.285683615047
 30
0
 40
2.5
  0
CIRCLE
  8
1
 62
7
 10
95.58723877944013
 20
1013.285683615047
 30
0
 40
2
  0
CIRCLE
  8
1
 62
3
 10
55.58723877944016
 20
1013.285683615047
 30
0
 40
2.5
  0
CIRCLE
  8
1
 62
7
 10
55.58723877944016
 20
1013.285683615047
 30
0
 40
2
  0
CIRCLE
  8
1
 62
7
 10
75.58723877944013
 20
994.285683615047
 30
0
 40
2.5
  0
CIRCLE
  8
1
 62
3
 10
55.58723877944016
 20
994.285683615047
 30
0
 40
2.5
  0
CIRCLE
  8
1
 62
7
 10
55.58723877944016
 20
994.285683615047
 30
0
 40
2
  0
CIRCLE
  8
1
 62
7
 10
55.58723877944016
 20
994.285683615047
 30
0
 40
4
  0
CIRCLE
  8
1
 62
7
 10
95.58723877944013
 20
994.285683615047
 30
0
 40
4
  0
CIRCLE
  8
1
 62
7
 10
95.58723877944013
 20
994.285683615047
 30
0
 40
2
  0
CIRCLE
  8
1
 62
3
 10
95.58723877944013
 20
994.285683615047
 30
0
 40
2.5
  0
CIRCLE
  8
1
 62
7
 10
135.5872387794401
 20
994.285683615047
 30
0
 40
4
  0
CIRCLE
  8
1
 62
3
 10
135.5872387794401
 20
994.285683615047
 30
0
 40
2.5
  0
CIRCLE
  8
1
 62
7
 10
135.5872387794401
 20
994.285683615047
 30
0
 40
2
  0
TEXT
  8
1
 62
2
 10
28.833983706826
 20
1040.81888432199
 30
0
 40
3.5
  1
MODEL : GW4A
 41
0.7200000000000003
  7
COMPLEX
  0
TEXT
  8
1
 62
2
 10
181.38491312343
 20
935.206702418184
 30
0
 40
3.5
  1
UNION TOOL CO.
 41
0.7200000000000003
  7
COMPLEX
  0
ENDSEC
  0
EOF
