  0
SECTION
  2
HEADER
  9
$ACADVER
  1
AC1009
  9
$INSBASE
 10
0
 20
0
  9
$EXTMIN
 10
-13.0666549642534
 20
75.85565809500281
  9
$EXTMAX
 10
75.49660755632462
 20
128.891407900802
  9
$LIMMIN
 10
-13.0666549642534
 20
75.85565809500281
  9
$LIMMAX
 10
75.49660755632462
 20
128.891407900802
  9
$VIEWCTR
 10
10
 20
10
  9
$VIEWSIZE
 40
10
  9
$SNAPMODE
 70
0
  9
$SNAPUNIT
 10
1
 20
1
  9
$SNAPBASE
 10
0
 20
0
  9
$SNAPANG
 50
0
  9
$SNAPSTYLE
 70
0
  9
$SNAPISOPAIR
 70
0
  9
$GRIDMODE
 70
0
  9
$GRIDUNIT
 10
0
 20
0
  9
$ORTHOMODE
 70
0
  9
$REGENMODE
 70
1
  9
$FILLMODE
 70
1
  9
$QTEXTMODE
 70
0
  9
$DRAGMODE
 70
2
  9
$LTSCALE
 40
1
  9
$OSMODE
 70
0
  9
$ATTMODE
 70
1
  9
$TEXTSIZE
 40
3.5
  9
$TRACEWID
 40
0.5
  9
$TEXTSTYLE
  7
STANDARD
  9
$CLAYER
  8
0
  9
$CELTYPE
  6
BYLAYER
  9
$CECOLOR
 62
256
  9
$DIMSCALE
 40
1
  9
$DIMASZ
 40
0.18
  9
$DIMEXO
 40
0.0625
  9
$DIMDLI
 40
0.38
  9
$DIMRND
 40
0
  9
$DIMDLE
 40
0
  9
$DIMEXE
 40
0.18
  9
$DIMTP
 40
0
  9
$DIMTM
 40
0
  9
$DIMTXT
 40
0.18
  9
$DIMCEN
 40
0.09
  9
$DIMTSZ
 40
0
  9
$DIMTOL
 70
0
  9
$DIMLIM
 70
0
  9
$DIMTIH
 70
1
  9
$DIMTOH
 70
1
  9
$DIMSE1
 70
0
  9
$DIMSE2
 70
0
  9
$DIMTAD
 70
0
  9
$DIMZIN
 70
0
  9
$DIMBLK
  1

  9
$DIMASO
 70
1
  9
$DIMSHO
 70
1
  9
$DIMPOST
  1

  9
$DIMAPOST
  1

  9
$DIMALT
 70
0
  9
$DIMALTD
 70
2
  9
$DIMALTF
 40
25.4
  9
$DIMLFAC
 40
1
  9
$DIMTOFL
 70
0
  9
$DIMTVP
 40
0
  9
$DIMTIX
 70
0
  9
$DIMSOXD
 70
0
  9
$DIMSAH
 70
0
  9
$DIMBLK1
  1

  9
$DIMBLK2
  1

  9
$DIMSTYLE
  2
*UNNAMED
  9
$DIMCLRD
 70
0
  9
$DIMCLRE
 70
0
  9
$DIMCLRT
 70
0
  9
$DIMTFAC
 40
1
  9
$DIMGAP
 40
0.09
  9
$LUNITS
 70
2
  9
$LUPREC
 70
4
  9
$AXISMODE
 70
0
  9
$AXISUNIT
 10
0
 20
0
  9
$SKETCHINC
 40
0.1
  9
$FILLETRAD
 40
2
  9
$AUNITS
 70
0
  9
$AUPREC
 70
0
  9
$MENU
  1
ACAD
  9
$ELEVATION
 40
0
  9
$THICKNESS
 40
0
  9
$VIEWDIR
 10
0
 20
0
 30
1
  9
$LIMCHECK
 70
0
  9
$BLIPMODE
 70
1
  9
$CHAMFERA
 40
0
  9
$CHAMFERB
 40
0
  9
$FASTZOOM
 70
1
  9
$SKPOLY
 70
0
  9
$ANGBASE
 50
0
  9
$ANGDIR
 70
0
  9
$PDMODE
 70
0
  9
$PDSIZE
 40
0
  9
$PLINEWID
 40
0
  9
$COORDS
 70
2
  0
ENDSEC
  0
SECTION
  2
TABLES
  0
TABLE
  2
DIMSTYLE
 70
0
  0
ENDTAB
  0
TABLE
  2
LTYPE
 70
9
  0
LTYPE
  2
CONTINUOUS
 70
64
  3
Solid line
 72
65
 73
0
 40
0
  0
LTYPE
  2
BORDER
 70
64
  3
__ __ . __ __ .
 72
65
 73
6
 40
4.078571300289777
 49
1.165306085797079
 49
-0.5826530428985396
 49
1.165306085797079
 49
-0.5826530428985396
 49
0
 49
-0.5826530428985396
  0
LTYPE
  2
CENTER
 70
64
  3
____ _ ____ _
 72
65
 73
4
 40
4.661224343188317
 49
2.913265214492698
 49
-0.5826530428985396
 49
0.5826530428985396
 49
-0.5826530428985396
  0
LTYPE
  2
DASHDOT
 70
64
  3
__ . __ . __ .
 72
65
 73
4
 40
2.330612171594158
 49
1.165306085797079
 49
-0.5826530428985396
 49
0
 49
-0.5826530428985396
  0
LTYPE
  2
DASHED
 70
64
  3
__ __ __ __ __
 72
65
 73
2
 40
1.747959128695619
 49
1.165306085797079
 49
-0.5826530428985396
  0
LTYPE
  2
DIVIDE
 70
64
  3
__ . . __ . . 
 72
65
 73
6
 40
2.913265214492698
 49
1.165306085797079
 49
-0.5826530428985396
 49
0
 49
-0.5826530428985396
 49
0
 49
-0.5826530428985396
  0
LTYPE
  2
DOT
 70
64
  3
..............
 72
65
 73
4
 40
1.165306085797079
 49
0
 49
-0.5826530428985396
 49
0
 49
-0.5826530428985396
  0
LTYPE
  2
HIDDEN
 70
64
  3
_ _ _ _ _ _ _
 72
65
 73
2
 40
0.8739795643478094
 49
0.5826530428985396
 49
-0.2913265214492698
  0
LTYPE
  2
PHANTOM
 70
64
  3
_____ _ _ _____ _ _ 
 72
65
 73
6
 40
5.826530428985396
 49
2.913265214492698
 49
-0.5826530428985396
 49
0.5826530428985396
 49
-0.5826530428985396
 49
0.5826530428985396
 49
-0.5826530428985396
  0
ENDTAB
  0
TABLE
  2
LAYER
 70
3
  0
LAYER
  2
1
 70
0
 62
7
  6
CONTINUOUS
  0
LAYER
  2
0
 70
0
 62
7
  6
CONTINUOUS
  0
ENDTAB
  0
TABLE
  2
STYLE
 70
4
  0
STYLE
  2
STANDARD
 70
0
 40
0
 41
1
 50
0
 71
0
 42
3.5
  3
txt
  4

  0
STYLE
  2
SIMPLEX
 70
0
 40
0
 41
1
 50
0
 71
0
 42
3.5
  3
simplex
  4

  0
STYLE
  2
COMPLEX
 70
0
 40
0
 41
1
 50
0
 71
0
 42
3.5
  3
complex
  4

  0
STYLE
  2
ITALIC
 70
0
 40
0
 41
1
 50
0
 71
0
 42
3.5
  3
italic
  4

  0
ENDTAB
  0
TABLE
  2
VIEW
 70
0
  0
ENDTAB
  0
ENDSEC
  0
SECTION
  2
BLOCKS
  0
ENDSEC
  0
SECTION
  2
ENTITIES
  0
LINE
  8
1
 62
3
  6
DASHDOT
 10
22.75931465291801
 20
112.6516032421872
 30
0
 11
29.20904110859057
 21
112.6516032421872
 31
0
  0
LINE
  8
1
 62
3
  6
CENTER
 10
25.93688712821329
 20
109.3507169027358
 30
0
 11
25.93688712821329
 21
115.874171610523
 31
0
  0
LINE
  8
1
 62
4
  6
CENTER
 10
33.43688712821329
 20
109.1516032421872
 30
0
 11
-12.68404346155586
 21
109.1516032421872
 31
0
  0
LINE
  8
1
 62
7
 10
33.03688712821329
 20
91.15160324218721
 30
0
 11
17.18771538994634
 21
91.15160324218721
 31
0
  0
LINE
  8
1
 62
7
 10
32.57688712821329
 20
91.55160324218721
 30
0
 11
17.25824618222973
 21
91.55160324218721
 31
0
  0
LINE
  8
1
 62
7
 10
32.57688712821329
 20
96.35160324218721
 30
0
 11
18.10461568963036
 21
96.35160324218721
 31
0
  0
LINE
  8
1
 62
7
 10
33.03688712821329
 20
96.7516032421872
 30
0
 11
18.17514648191375
 21
96.7516032421872
 31
0
  0
LINE
  8
1
 62
7
 10
33.03688712821329
 20
108.7516032421872
 30
0
 11
20.29107025041532
 21
108.7516032421872
 31
0
  0
LINE
  8
1
 62
7
 10
32.57688712821329
 20
114.7516032421872
 30
0
 11
21.34903213466611
 21
114.7516032421872
 31
0
  0
LINE
  8
1
 62
4
  6
CENTER
 10
45.55402378087719
 20
97.15160324218721
 30
0
 11
51.15402378087721
 21
97.15160324218721
 31
0
  0
LINE
  8
1
 62
4
  6
CENTER
 10
-12.68404346155585
 20
97.15160324218721
 30
0
 11
33.43688712821329
 21
97.15160324218721
 31
0
  0
LINE
  8
1
 62
7
 10
-10.70311287178669
 20
91.55160324218721
 30
0
 11
-10.7031128717867
 21
91.15160324218721
 31
0
  0
LINE
  8
1
 62
7
 10
-10.7031128717867
 20
96.7516032421872
 30
0
 11
-10.70311287178669
 21
96.35160324218721
 31
0
  0
LINE
  8
1
 62
7
 10
32.57688712821329
 20
91.55160324218721
 30
0
 11
32.57688712821329
 21
91.15160324218721
 31
0
  0
LINE
  8
1
 62
7
 10
32.57688712821329
 20
96.7516032421872
 30
0
 11
32.57688712821329
 21
96.35160324218721
 31
0
  0
LINE
  8
1
 62
7
 10
-11.1631128717867
 20
97.55160324218721
 30
0
 11
16.31620806648052
 21
97.55160324218721
 31
0
  0
LINE
  8
1
 62
7
 10
51.55402378087719
 20
97.9516032421872
 30
0
 11
51.15402378087721
 21
97.55160324218721
 31
0
  0
LINE
  8
1
 62
7
 10
51.0540237808772
 20
96.3516032421871
 30
0
 11
50.6540237808772
 21
96.7516032421872
 31
0
  0
LINE
  8
1
 62
7
 10
50.6540237808772
 20
91.15160324218721
 30
0
 11
51.0540237808772
 21
91.55160324218731
 31
0
  0
LINE
  8
1
 62
7
 10
45.0540237808772
 20
91.55160324218731
 30
0
 11
45.45402378087719
 21
91.15160324218721
 31
0
  0
LINE
  8
1
 62
7
 10
45.0540237808772
 20
96.3516032421871
 30
0
 11
45.45402378087719
 21
96.7516032421872
 31
0
  0
LINE
  8
1
 62
7
 10
45.55402378087719
 20
97.9516032421872
 30
0
 11
45.95402378087721
 21
97.55160324218721
 31
0
  0
LINE
  8
1
 62
7
 10
-11.1631128717867
 20
97.55160324218721
 30
0
 11
-11.56311287178671
 21
97.9516032421872
 31
0
  0
LINE
  8
1
 62
7
 10
-11.56311287178671
 20
96.35160324218721
 30
0
 11
-11.1631128717867
 21
96.7516032421872
 31
0
  0
LINE
  8
1
 62
7
 10
-11.1631128717867
 20
91.15160324218721
 30
0
 11
-11.56311287178671
 21
91.55160324218721
 31
0
  0
LINE
  8
1
 62
7
 10
33.43688712821329
 20
91.55160324218721
 30
0
 11
33.03688712821329
 21
91.15160324218721
 31
0
  0
LINE
  8
1
 62
7
 10
33.43688712821329
 20
96.35160324218721
 30
0
 11
33.03688712821329
 21
96.7516032421872
 31
0
  0
LINE
  8
1
 62
7
 10
33.03688712821327
 20
97.55160324218721
 30
0
 11
33.43688712821329
 21
97.9516032421872
 31
0
  0
LINE
  8
1
 62
3
  6
CENTER
 10
7.835648923133702
 20
93.65160324218721
 30
0
 11
13.98497777145
 21
93.65160324218721
 31
0
  0
LINE
  8
1
 62
3
  6
CENTER
 10
10.93688712821329
 20
90.3507169027358
 30
0
 11
10.93688712821329
 21
96.87417161052302
 31
0
  0
LINE
  8
1
 62
3
  6
CENTER
 10
25.93688712821329
 20
90.3507169027358
 30
0
 11
25.93688712821329
 21
96.87417161052302
 31
0
  0
LINE
  8
1
 62
3
  6
CENTER
 10
22.83564892313371
 20
93.65160324218721
 30
0
 11
28.98497777145
 21
93.65160324218721
 31
0
  0
LINE
  8
1
 62
7
 10
33.03688712821329
 20
91.15160324218721
 30
0
 11
32.57688712821329
 21
91.15160324218721
 31
0
  0
LINE
  8
1
 62
7
 10
33.03688712821329
 20
96.7516032421872
 30
0
 11
32.57688712821329
 21
96.7516032421872
 31
0
  0
LINE
  8
1
 62
7
 10
45.0540237808772
 20
96.3516032421871
 30
0
 11
45.0540237808772
 21
91.55160324218731
 31
0
  0
LINE
  8
1
 62
7
 10
45.45402378087719
 20
91.15160324218721
 30
0
 11
50.6540237808772
 21
91.15160324218721
 31
0
  0
LINE
  8
1
 62
7
 10
51.0540237808772
 20
91.55160324218731
 30
0
 11
51.0540237808772
 21
96.3516032421871
 31
0
  0
LINE
  8
1
 62
7
 10
49.0682373432503
 20
96.7516032421872
 30
0
 11
50.6540237808772
 21
96.7516032421872
 31
0
  0
LINE
  8
1
 62
7
 10
47.03981021850421
 20
96.7516032421872
 30
0
 11
45.45402378087719
 21
96.7516032421872
 31
0
  0
LINE
  8
1
 62
7
 10
47.03981021850421
 20
97.55160324218721
 30
0
 11
45.95402378087721
 21
97.55160324218721
 31
0
  0
LINE
  8
1
 62
7
 10
49.06823734325028
 20
97.55160324218721
 30
0
 11
51.15402378087721
 21
97.55160324218721
 31
0
  0
LINE
  8
1
 62
7
 10
33.43688712821329
 20
108.3516032421871
 30
0
 11
33.03688712821329
 21
108.7516032421872
 31
0
  0
LINE
  8
1
 62
7
 10
-11.56311287178671
 20
108.3516032421871
 30
0
 11
-11.1631128717867
 21
108.7516032421872
 31
0
  0
LINE
  8
1
 62
7
 10
32.57688712821329
 20
109.5516032421872
 30
0
 11
33.03688712821329
 21
109.5516032421872
 31
0
  0
LINE
  8
1
 62
7
 10
32.57688712821329
 20
115.1516032421872
 30
0
 11
33.03688712821329
 21
115.1516032421872
 31
0
  0
LINE
  8
1
 62
3
  6
CENTER
 10
10.93688712821329
 20
109.3507169027358
 30
0
 11
10.93688712821329
 21
115.874171610523
 31
0
  0
LINE
  8
1
 62
3
  6
CENTER
 10
13.98497777145
 20
112.6516032421872
 30
0
 11
7.835648923133702
 21
112.6516032421872
 31
0
  0
LINE
  8
1
 62
7
 10
33.03688712821329
 20
109.5516032421872
 30
0
 11
33.43688712821329
 21
109.9516032421872
 31
0
  0
LINE
  8
1
 62
7
 10
33.03688712821329
 20
115.1516032421872
 30
0
 11
33.43688712821329
 21
114.7516032421872
 31
0
  0
LINE
  8
1
 62
7
 10
-11.56311287178671
 20
114.7516032421872
 30
0
 11
-11.1631128717867
 21
115.1516032421872
 31
0
  0
LINE
  8
1
 62
7
 10
-11.1631128717867
 20
109.5516032421872
 30
0
 11
-11.56311287178671
 21
109.9516032421872
 31
0
  0
LINE
  8
1
 62
7
 10
32.57688712821329
 20
109.9516032421872
 30
0
 11
32.57688712821329
 21
109.5516032421872
 31
0
  0
LINE
  8
1
 62
7
 10
32.57688712821329
 20
115.1516032421872
 30
0
 11
32.57688712821329
 21
114.7516032421872
 31
0
  0
LINE
  8
1
 62
7
 10
-10.7031128717867
 20
109.9516032421872
 30
0
 11
-10.7031128717867
 21
109.5516032421872
 31
0
  0
LINE
  8
1
 62
7
 10
-10.7031128717867
 20
115.1516032421872
 30
0
 11
-10.70311287178669
 21
114.7516032421872
 31
0
  0
LINE
  8
1
 62
7
 10
33.03688712821329
 20
109.5516032421872
 30
0
 11
20.4321318349821
 21
109.5516032421872
 31
0
  0
LINE
  8
1
 62
7
 10
-10.7031128717867
 20
109.9516032421872
 30
0
 11
18.50266262726548
 21
109.9516032421872
 31
0
  0
LINE
  8
1
 62
7
 10
33.03688712821329
 20
115.1516032421872
 30
0
 11
21.4195629269495
 21
115.1516032421872
 31
0
  0
LINE
  8
1
 62
3
  6
CENTER
 10
10.93688712821329
 20
99.8507169027358
 30
0
 11
10.93688712821329
 21
106.3741716105231
 31
0
  0
LINE
  8
1
 62
3
  6
CENTER
 10
25.93688712821329
 20
99.8507169027358
 30
0
 11
25.93688712821329
 21
106.3741716105231
 31
0
  0
LINE
  8
1
 62
7
 10
51.15402378087721
 20
108.7516032421872
 30
0
 11
49.06823734325028
 21
108.7516032421871
 31
0
  0
LINE
  8
1
 62
7
 10
45.95402378087721
 20
108.7516032421872
 30
0
 11
47.03981021850421
 21
108.7516032421871
 31
0
  0
LINE
  8
1
 62
7
 10
45.45402378087719
 20
109.5516032421872
 30
0
 11
47.03981021850421
 21
109.5516032421872
 31
0
  0
LINE
  8
1
 62
7
 10
50.6540237808772
 20
109.5516032421872
 30
0
 11
49.0682373432503
 21
109.5516032421872
 31
0
  0
LINE
  8
1
 62
7
 10
51.0540237808772
 20
109.9516032421872
 30
0
 11
51.0540237808772
 21
114.7516032421872
 31
0
  0
LINE
  8
1
 62
7
 10
50.6540237808772
 20
115.1516032421872
 30
0
 11
45.45402378087719
 21
115.1516032421872
 31
0
  0
LINE
  8
1
 62
7
 10
45.0540237808772
 20
114.7516032421872
 30
0
 11
45.0540237808772
 21
109.9516032421872
 31
0
  0
LINE
  8
1
 62
7
 10
51.55402378087719
 20
108.3516032421872
 30
0
 11
51.55402378087719
 21
97.9516032421872
 31
0
  0
LINE
  8
1
 62
7
 10
45.55402378087719
 20
108.3516032421872
 30
0
 11
45.55402378087719
 21
97.9516032421872
 31
0
  0
LINE
  8
1
 62
7
 10
45.95402378087721
 20
108.7516032421872
 30
0
 11
45.55402378087719
 21
108.3516032421872
 31
0
  0
LINE
  8
1
 62
7
 10
45.45402378087719
 20
109.5516032421872
 30
0
 11
45.0540237808772
 21
109.9516032421872
 31
0
  0
LINE
  8
1
 62
7
 10
45.45402378087719
 20
115.1516032421872
 30
0
 11
45.0540237808772
 21
114.7516032421872
 31
0
  0
LINE
  8
1
 62
7
 10
51.0540237808772
 20
114.7516032421872
 30
0
 11
50.6540237808772
 21
115.1516032421872
 31
0
  0
LINE
  8
1
 62
7
 10
50.6540237808772
 20
109.5516032421872
 30
0
 11
51.0540237808772
 21
109.9516032421872
 31
0
  0
LINE
  8
1
 62
7
 10
51.15402378087721
 20
108.7516032421872
 30
0
 11
51.55402378087719
 21
108.3516032421872
 31
0
  0
LINE
  8
1
 62
4
  6
CENTER
 10
45.55402378087719
 20
109.1516032421872
 30
0
 11
51.15402378087721
 21
109.1516032421872
 31
0
  0
LINE
  8
1
 62
4
  6
CENTER
 10
-12.77115037635181
 20
103.1516032421872
 30
0
 11
35.5764302834627
 21
103.1516032421872
 31
0
  0
LINE
  8
1
 62
4
  6
CENTER
 10
42.52451659252731
 20
103.1516032421872
 30
0
 11
53.6091319771426
 21
103.1516032421872
 31
0
  0
LINE
  8
1
 62
7
 10
33.43688712821329
 20
108.4516032421872
 30
0
 11
33.43688712821329
 21
97.85160324218721
 31
0
  0
LINE
  8
1
 62
7
 10
33.43688712821329
 20
108.4516032421872
 30
0
 11
34.53688712821329
 21
108.4516032421872
 31
0
  0
LINE
  8
1
 62
7
 10
34.53688712821329
 20
108.4516032421872
 30
0
 11
34.93688712821329
 21
108.0516032421872
 31
0
  0
LINE
  8
1
 62
7
 10
34.93688712821329
 20
108.0516032421872
 30
0
 11
34.93688712821329
 21
103.8516032421872
 31
0
  0
LINE
  8
1
 62
7
 10
34.93688712821329
 20
103.8516032421872
 30
0
 11
34.53688712821329
 21
103.4516032421872
 31
0
  0
LINE
  8
1
 62
7
 10
34.53688712821329
 20
103.4516032421872
 30
0
 11
33.43688712821329
 21
103.4516032421872
 31
0
  0
LINE
  8
1
 62
7
 10
33.43688712821329
 20
102.8516032421872
 30
0
 11
34.53688712821329
 21
102.8516032421872
 31
0
  0
LINE
  8
1
 62
7
 10
34.53688712821329
 20
102.8516032421872
 30
0
 11
34.93688712821329
 21
102.4516032421872
 31
0
  0
LINE
  8
1
 62
7
 10
34.93688712821329
 20
102.4516032421872
 30
0
 11
34.93688712821329
 21
98.25160324218722
 31
0
  0
LINE
  8
1
 62
7
 10
34.93688712821329
 20
98.25160324218722
 30
0
 11
34.53688712821329
 21
97.85160324218721
 31
0
  0
LINE
  8
1
 62
7
 10
34.53688712821329
 20
97.85160324218721
 30
0
 11
33.43688712821329
 21
97.85160324218721
 31
0
  0
LINE
  8
1
 62
7
 10
34.53688712821329
 20
108.4516032421872
 30
0
 11
34.53688712821329
 21
103.4516032421872
 31
0
  0
LINE
  8
1
 62
7
 10
34.53688712821329
 20
102.8516032421872
 30
0
 11
34.53688712821329
 21
97.85160324218721
 31
0
  0
LINE
  8
1
 62
7
 10
-11.56311287178672
 20
97.85160324218721
 30
0
 11
-11.56311287178672
 21
108.4516032421872
 31
0
  0
LINE
  8
1
 62
7
 10
-12.66311287178672
 20
108.4516032421872
 30
0
 11
-11.56311287178672
 21
108.4516032421872
 31
0
  0
LINE
  8
1
 62
7
 10
-13.06311287178672
 20
108.0516032421872
 30
0
 11
-12.66311287178672
 21
108.4516032421872
 31
0
  0
LINE
  8
1
 62
7
 10
-13.06311287178672
 20
103.8516032421872
 30
0
 11
-13.06311287178672
 21
108.0516032421872
 31
0
  0
LINE
  8
1
 62
7
 10
-12.66311287178672
 20
103.4516032421872
 30
0
 11
-13.06311287178672
 21
103.8516032421872
 31
0
  0
LINE
  8
1
 62
7
 10
-11.56311287178672
 20
103.4516032421872
 30
0
 11
-12.66311287178672
 21
103.4516032421872
 31
0
  0
LINE
  8
1
 62
7
 10
-12.66311287178672
 20
102.8516032421872
 30
0
 11
-11.56311287178672
 21
102.8516032421872
 31
0
  0
LINE
  8
1
 62
7
 10
-13.06311287178672
 20
102.4516032421872
 30
0
 11
-12.66311287178672
 21
102.8516032421872
 31
0
  0
LINE
  8
1
 62
7
 10
-13.06311287178672
 20
98.25160324218722
 30
0
 11
-13.06311287178672
 21
102.4516032421872
 31
0
  0
LINE
  8
1
 62
7
 10
-12.66311287178672
 20
97.85160324218721
 30
0
 11
-13.06311287178672
 21
98.25160324218722
 31
0
  0
LINE
  8
1
 62
7
 10
-11.56311287178672
 20
97.85160324218721
 30
0
 11
-12.66311287178672
 21
97.85160324218721
 31
0
  0
LINE
  8
1
 62
7
 10
-12.66311287178672
 20
103.4516032421872
 30
0
 11
-12.66311287178672
 21
108.4516032421872
 31
0
  0
LINE
  8
1
 62
7
 10
-12.66311287178672
 20
97.85160324218721
 30
0
 11
-12.66311287178672
 21
102.8516032421872
 31
0
  0
LINE
  8
1
 62
7
 10
33.43688712821329
 20
96.50160324218722
 30
0
 11
34.53688712821329
 21
96.50160324218722
 31
0
  0
LINE
  8
1
 62
7
 10
34.53688712821329
 20
96.50160324218722
 30
0
 11
34.93688712821329
 21
96.10160324218721
 31
0
  0
LINE
  8
1
 62
7
 10
34.93688712821329
 20
96.10160324218721
 30
0
 11
34.93688712821329
 21
91.90160324218722
 31
0
  0
LINE
  8
1
 62
7
 10
34.93688712821329
 20
91.90160324218722
 30
0
 11
34.53688712821329
 21
91.50160324218722
 31
0
  0
LINE
  8
1
 62
7
 10
34.53688712821329
 20
91.50160324218722
 30
0
 11
33.43688712821329
 21
91.50160324218722
 31
0
  0
LINE
  8
1
 62
7
 10
34.53688712821329
 20
96.50160324218722
 30
0
 11
34.53688712821329
 21
91.50160324218722
 31
0
  0
LINE
  8
1
 62
7
 10
33.43688712821329
 20
114.8016032421872
 30
0
 11
34.53688712821329
 21
114.8016032421872
 31
0
  0
LINE
  8
1
 62
7
 10
34.53688712821329
 20
114.8016032421872
 30
0
 11
34.93688712821329
 21
114.4016032421872
 31
0
  0
LINE
  8
1
 62
7
 10
34.93688712821329
 20
114.4016032421872
 30
0
 11
34.93688712821329
 21
110.2016032421872
 31
0
  0
LINE
  8
1
 62
7
 10
34.93688712821329
 20
110.2016032421872
 30
0
 11
34.53688712821329
 21
109.8016032421872
 31
0
  0
LINE
  8
1
 62
7
 10
34.53688712821329
 20
109.8016032421872
 30
0
 11
33.43688712821329
 21
109.8016032421872
 31
0
  0
LINE
  8
1
 62
7
 10
34.53688712821329
 20
114.8016032421872
 30
0
 11
34.53688712821329
 21
109.8016032421872
 31
0
  0
LINE
  8
1
 62
7
 10
33.43688712821329
 20
114.8016032421872
 30
0
 11
33.43688712821329
 21
109.8016032421872
 31
0
  0
LINE
  8
1
 62
7
 10
33.43688712821329
 20
96.50160324218722
 30
0
 11
33.43688712821329
 21
91.50160324218722
 31
0
  0
LINE
  8
1
 62
7
 10
-12.66311287178672
 20
114.8016032421872
 30
0
 11
-11.56311287178672
 21
114.8016032421872
 31
0
  0
LINE
  8
1
 62
7
 10
-13.06311287178672
 20
114.4016032421872
 30
0
 11
-12.66311287178672
 21
114.8016032421872
 31
0
  0
LINE
  8
1
 62
7
 10
-13.06311287178672
 20
110.2016032421872
 30
0
 11
-13.06311287178672
 21
114.4016032421872
 31
0
  0
LINE
  8
1
 62
7
 10
-12.66311287178672
 20
109.8016032421872
 30
0
 11
-13.06311287178672
 21
110.2016032421872
 31
0
  0
LINE
  8
1
 62
7
 10
-11.56311287178672
 20
109.8016032421872
 30
0
 11
-12.66311287178672
 21
109.8016032421872
 31
0
  0
LINE
  8
1
 62
7
 10
-12.66311287178672
 20
109.8016032421872
 30
0
 11
-12.66311287178672
 21
114.8016032421872
 31
0
  0
LINE
  8
1
 62
7
 10
-11.56311287178672
 20
109.8016032421872
 30
0
 11
-11.56311287178672
 21
114.8016032421872
 31
0
  0
LINE
  8
1
 62
7
 10
-12.66311287178672
 20
96.50160324218722
 30
0
 11
-11.56311287178672
 21
96.50160324218722
 31
0
  0
LINE
  8
1
 62
7
 10
-13.06311287178672
 20
96.10160324218721
 30
0
 11
-12.66311287178672
 21
96.50160324218722
 31
0
  0
LINE
  8
1
 62
7
 10
-13.06311287178672
 20
91.90160324218722
 30
0
 11
-13.06311287178672
 21
96.10160324218721
 31
0
  0
LINE
  8
1
 62
7
 10
-12.66311287178672
 20
91.50160324218722
 30
0
 11
-13.06311287178672
 21
91.90160324218722
 31
0
  0
LINE
  8
1
 62
7
 10
-11.56311287178672
 20
91.50160324218722
 30
0
 11
-12.66311287178672
 21
91.50160324218722
 31
0
  0
LINE
  8
1
 62
7
 10
-12.66311287178672
 20
91.50160324218722
 30
0
 11
-12.66311287178672
 21
96.50160324218722
 31
0
  0
LINE
  8
1
 62
7
 10
-11.56311287178672
 20
91.50160324218722
 30
0
 11
-11.56311287178672
 21
96.50160324218722
 31
0
  0
LINE
  8
1
 62
4
  6
CENTER
 10
58.33820446048679
 20
97.15160324218721
 30
0
 11
63.7337632432862
 21
97.15160324218721
 31
0
  0
LINE
  8
1
 62
7
 10
64.13376324328618
 20
97.9516032421872
 30
0
 11
63.73376324328621
 21
97.55160324218721
 31
0
  0
LINE
  8
1
 62
7
 10
63.6337632432862
 20
96.3516032421871
 30
0
 11
63.23376324328619
 21
96.7516032421872
 31
0
  0
LINE
  8
1
 62
7
 10
63.23376324328619
 20
91.15160324218721
 30
0
 11
63.6337632432862
 21
91.55160324218731
 31
0
  0
LINE
  8
1
 62
7
 10
57.6337632432862
 20
91.55160324218731
 30
0
 11
58.03376324328619
 21
91.15160324218721
 31
0
  0
LINE
  8
1
 62
7
 10
57.6337632432862
 20
96.3516032421871
 30
0
 11
58.03376324328619
 21
96.7516032421872
 31
0
  0
LINE
  8
1
 62
7
 10
58.13376324328618
 20
97.9516032421872
 30
0
 11
58.5337632432862
 21
97.55160324218721
 31
0
  0
LINE
  8
1
 62
7
 10
57.6337632432862
 20
96.3516032421871
 30
0
 11
57.6337632432862
 21
91.55160324218731
 31
0
  0
LINE
  8
1
 62
7
 10
58.03376324328619
 20
91.15160324218721
 30
0
 11
63.23376324328619
 21
91.15160324218721
 31
0
  0
LINE
  8
1
 62
7
 10
63.6337632432862
 20
91.55160324218731
 30
0
 11
63.6337632432862
 21
96.3516032421871
 31
0
  0
LINE
  8
1
 62
7
 10
61.64797680565929
 20
96.7516032421872
 30
0
 11
63.23376324328619
 21
96.7516032421872
 31
0
  0
LINE
  8
1
 62
7
 10
59.61954968091321
 20
96.7516032421872
 30
0
 11
58.03376324328619
 21
96.7516032421872
 31
0
  0
LINE
  8
1
 62
7
 10
59.61954968091321
 20
97.55160324218721
 30
0
 11
58.5337632432862
 21
97.55160324218721
 31
0
  0
LINE
  8
1
 62
7
 10
61.64797680565928
 20
97.55160324218721
 30
0
 11
63.73376324328621
 21
97.55160324218721
 31
0
  0
LINE
  8
1
 62
7
 10
63.73376324328621
 20
108.7516032421872
 30
0
 11
61.64797680565928
 21
108.7516032421871
 31
0
  0
LINE
  8
1
 62
7
 10
58.5337632432862
 20
108.7516032421872
 30
0
 11
59.61954968091321
 21
108.7516032421871
 31
0
  0
LINE
  8
1
 62
7
 10
58.03376324328619
 20
109.5516032421872
 30
0
 11
59.61954968091321
 21
109.5516032421872
 31
0
  0
LINE
  8
1
 62
7
 10
63.23376324328619
 20
109.5516032421872
 30
0
 11
61.64797680565929
 21
109.5516032421872
 31
0
  0
LINE
  8
1
 62
7
 10
63.6337632432862
 20
109.9516032421872
 30
0
 11
63.6337632432862
 21
114.7516032421872
 31
0
  0
LINE
  8
1
 62
7
 10
63.23376324328619
 20
115.1516032421872
 30
0
 11
58.03376324328619
 21
115.1516032421872
 31
0
  0
LINE
  8
1
 62
7
 10
57.6337632432862
 20
114.7516032421872
 30
0
 11
57.6337632432862
 21
109.9516032421872
 31
0
  0
LINE
  8
1
 62
7
 10
58.13376324328618
 20
108.3516032421872
 30
0
 11
58.13376324328618
 21
97.9516032421872
 31
0
  0
LINE
  8
1
 62
7
 10
58.5337632432862
 20
108.7516032421872
 30
0
 11
58.13376324328618
 21
108.3516032421872
 31
0
  0
LINE
  8
1
 62
7
 10
58.03376324328619
 20
109.5516032421872
 30
0
 11
57.6337632432862
 21
109.9516032421872
 31
0
  0
LINE
  8
1
 62
7
 10
58.03376324328619
 20
115.1516032421872
 30
0
 11
57.6337632432862
 21
114.7516032421872
 31
0
  0
LINE
  8
1
 62
7
 10
63.6337632432862
 20
114.7516032421872
 30
0
 11
63.23376324328619
 21
115.1516032421872
 31
0
  0
LINE
  8
1
 62
7
 10
63.23376324328619
 20
109.5516032421872
 30
0
 11
63.6337632432862
 21
109.9516032421872
 31
0
  0
LINE
  8
1
 62
7
 10
63.73376324328621
 20
108.7516032421872
 30
0
 11
64.13376324328618
 21
108.3516032421872
 31
0
  0
LINE
  8
1
 62
4
  6
CENTER
 10
58.33820446048679
 20
109.1516032421872
 30
0
 11
63.7337632432862
 21
109.1516032421872
 31
0
  0
LINE
  8
1
 62
7
 10
61.64797680565929
 20
96.7516032421872
 30
0
 11
61.0337632432862
 21
96.13738967981411
 31
0
  0
LINE
  8
1
 62
7
 10
61.0337632432862
 20
96.13738967981411
 30
0
 11
61.0337632432862
 21
96.10160324218721
 31
0
  0
LINE
  8
1
 62
7
 10
60.2337632432862
 20
96.10160324218721
 30
0
 11
60.2337632432862
 21
96.13738967981411
 31
0
  0
LINE
  8
1
 62
3
  6
DASHDOT
 10
60.6337632432862
 20
98.90683337246
 30
0
 11
60.6337632432862
 21
95.0229383574992
 31
0
  0
LINE
  8
1
 62
7
 10
59.61954968091321
 20
97.55160324218721
 30
0
 11
60.2337632432862
 21
98.16581680456032
 31
0
  0
LINE
  8
1
 62
7
 10
60.2337632432862
 20
98.16581680456032
 30
0
 11
60.2337632432862
 21
98.65160324218718
 31
0
  0
LINE
  8
1
 62
7
 10
60.2337632432862
 20
98.65160324218718
 30
0
 11
61.0337632432862
 21
98.65160324218718
 31
0
  0
LINE
  8
1
 62
7
 10
61.0337632432862
 20
98.65160324218718
 30
0
 11
61.0337632432862
 21
98.16581680456029
 31
0
  0
LINE
  8
1
 62
7
 10
61.75806302537281
 20
97.44151702247369
 30
0
 11
60.92367702357269
 21
98.2759030242738
 31
0
  0
LINE
  8
1
 62
3
  6
DASHDOT
 10
60.6337632432862
 20
111.2802681268752
 30
0
 11
60.6337632432862
 21
107.3963731119144
 31
0
  0
LINE
  8
1
 62
3
  6
CENTER
 10
-7.164351076866298
 20
93.65160324218721
 30
0
 11
-1.01502222855
 21
93.65160324218721
 31
0
  0
LINE
  8
1
 62
3
  6
CENTER
 10
-4.063112871786711
 20
90.3507169027358
 30
0
 11
-4.063112871786711
 21
96.87417161052302
 31
0
  0
LINE
  8
1
 62
3
  6
CENTER
 10
-4.063112871786711
 20
109.3507169027358
 30
0
 11
-4.063112871786711
 21
115.874171610523
 31
0
  0
LINE
  8
1
 62
3
  6
CENTER
 10
-1.01502222855
 20
112.6516032421872
 30
0
 11
-7.164351076866299
 21
112.6516032421872
 31
0
  0
LINE
  8
1
 62
3
  6
CENTER
 10
-4.063112871786711
 20
99.8507169027358
 30
0
 11
-4.063112871786711
 21
106.3741716105231
 31
0
  0
LINE
  8
1
 62
3
  6
CENTER
 10
3.436887128213289
 20
105.5516032421873
 30
0
 11
3.436887128213289
 21
100.7516032421872
 31
0
  0
LINE
  8
1
 62
3
 10
64.13376324328618
 20
104.6516032421872
 30
0
 11
60.13376324328618
 21
104.6516032421872
 31
0
  0
LINE
  8
1
 62
7
 10
64.13376324328618
 20
108.3516032421872
 30
0
 11
64.13376324328618
 21
97.9516032421872
 31
0
  0
LINE
  8
1
 62
3
 10
64.13376324328618
 20
101.6516032421872
 30
0
 11
60.13376324328618
 21
101.6516032421872
 31
0
  0
LINE
  8
1
 62
4
  6
CENTER
 10
64.93376324328618
 20
103.1516032421872
 30
0
 11
57.0310721306934
 21
103.1516032421872
 31
0
  0
LINE
  8
1
 62
7
 10
64.13376324328618
 20
104.3516032421872
 30
0
 11
60.13376324328618
 21
104.3516032421872
 31
0
  0
LINE
  8
1
 62
7
 10
64.13376324328618
 20
101.9516032421872
 30
0
 11
60.13376324328618
 21
101.9516032421872
 31
0
  0
LINE
  8
1
 62
7
 10
58.13376324328618
 20
105.3516032421872
 30
0
 11
60.13376324328618
 21
105.3516032421872
 31
0
  0
LINE
  8
1
 62
7
 10
60.13376324328618
 20
105.3516032421872
 30
0
 11
60.13376324328618
 21
100.9516032421872
 31
0
  0
LINE
  8
1
 62
7
 10
60.13376324328618
 20
100.9516032421872
 30
0
 11
58.13376324328618
 21
100.9516032421872
 31
0
  0
LINE
  8
1
 62
3
 10
61.63376324328618
 20
95.15160324218721
 30
0
 11
57.63376324328618
 21
95.15160324218721
 31
0
  0
LINE
  8
1
 62
3
 10
61.63376324328618
 20
92.15160324218721
 30
0
 11
57.63376324328618
 21
92.15160324218721
 31
0
  0
LINE
  8
1
 62
3
  6
CENTER
 10
64.43376324328619
 20
93.65160324218721
 30
0
 11
56.53107213069342
 21
93.65160324218721
 31
0
  0
LINE
  8
1
 62
7
 10
61.63376324328618
 20
94.85160324218721
 30
0
 11
57.63376324328618
 21
94.85160324218721
 31
0
  0
LINE
  8
1
 62
7
 10
61.63376324328618
 20
92.4516032421872
 30
0
 11
57.63376324328618
 21
92.4516032421872
 31
0
  0
LINE
  8
1
 62
7
 10
61.63376324328618
 20
95.85160324218721
 30
0
 11
63.63376324328618
 21
95.85160324218721
 31
0
  0
LINE
  8
1
 62
7
 10
61.63376324328618
 20
91.4516032421872
 30
0
 11
61.63376324328618
 21
95.85160324218721
 31
0
  0
LINE
  8
1
 62
7
 10
63.53376324328612
 20
91.4516032421872
 30
0
 11
61.63376324328618
 21
91.4516032421872
 31
0
  0
LINE
  8
1
 62
7
 10
61.63376324328618
 20
114.8516032421872
 30
0
 11
63.53376324328612
 21
114.8516032421872
 31
0
  0
LINE
  8
1
 62
7
 10
61.63376324328618
 20
110.4516032421872
 30
0
 11
61.63376324328618
 21
114.8516032421872
 31
0
  0
LINE
  8
1
 62
3
 10
61.63376324328618
 20
114.1516032421872
 30
0
 11
57.63376324328618
 21
114.1516032421872
 31
0
  0
LINE
  8
1
 62
7
 10
61.63376324328618
 20
113.8516032421872
 30
0
 11
57.63376324328618
 21
113.8516032421872
 31
0
  0
LINE
  8
1
 62
3
  6
CENTER
 10
64.43376324328619
 20
112.6516032421872
 30
0
 11
56.53107213069342
 21
112.6516032421872
 31
0
  0
LINE
  8
1
 62
7
 10
61.63376324328618
 20
111.4516032421872
 30
0
 11
57.63376324328618
 21
111.4516032421872
 31
0
  0
LINE
  8
1
 62
3
 10
61.63376324328618
 20
111.1516032421872
 30
0
 11
57.63376324328618
 21
111.1516032421872
 31
0
  0
LINE
  8
1
 62
7
 10
63.63376324328618
 20
110.4516032421872
 30
0
 11
61.63376324328618
 21
110.4516032421872
 31
0
  0
LINE
  8
1
 62
7
 10
60.64083431109807
 20
98.06377098991784
 30
0
 11
60.4393088784599
 21
98.26529642255602
 31
0
  0
LINE
  8
1
 62
7
 10
60.36859820034124
 20
98.26529642255602
 30
0
 11
59.52007006291738
 21
97.41676828513215
 31
0
  0
LINE
  8
1
 62
7
 10
59.52007006291738
 20
97.34605760701351
 30
0
 11
59.72159549555555
 21
97.14453217437533
 31
0
  0
LINE
  8
1
 62
7
 10
61.54593099101684
 20
97.15867430999909
 30
0
 11
61.74745642365501
 21
96.95714887736091
 31
0
  0
LINE
  8
1
 62
7
 10
61.74745642365501
 20
96.88643819924226
 30
0
 11
60.89892828623115
 21
96.03791006181839
 31
0
  0
LINE
  8
1
 62
7
 10
60.8282176081125
 20
96.03791006181839
 30
0
 11
60.62669217547433
 21
96.23943549445657
 31
0
  0
LINE
  8
1
 62
7
 10
60.85296634545404
 20
98.27590302427382
 30
0
 11
59.50946346119959
 21
96.93240014001937
 31
0
  0
LINE
  8
1
 62
7
 10
59.5094634611996
 20
96.86168946190074
 30
0
 11
60.3438494629997
 21
96.0273034601006
 31
0
  0
LINE
  8
1
 62
7
 10
61.75806302537281
 20
97.37080634435505
 30
0
 11
60.41456014111836
 21
96.0273034601006
 31
0
  0
LINE
  8
1
 62
7
 10
60.36859820034124
 20
98.26529642255602
 30
0
 11
60.4393088784599
 21
98.26529642255602
 31
0
  0
LINE
  8
1
 62
7
 10
59.52007006291738
 20
97.34605760701351
 30
0
 11
59.52007006291738
 21
97.41676828513215
 31
0
  0
LINE
  8
1
 62
7
 10
59.5094634611996
 20
96.86168946190074
 30
0
 11
59.50946346119959
 21
96.93240014001937
 31
0
  0
LINE
  8
1
 62
7
 10
60.85296634545404
 20
98.27590302427382
 30
0
 11
60.92367702357269
 21
98.2759030242738
 31
0
  0
LINE
  8
1
 62
7
 10
61.75806302537281
 20
97.37080634435505
 30
0
 11
61.75806302537281
 21
97.44151702247369
 31
0
  0
LINE
  8
1
 62
7
 10
60.3438494629997
 20
96.0273034601006
 30
0
 11
60.41456014111836
 21
96.0273034601006
 31
0
  0
LINE
  8
1
 62
7
 10
60.8282176081125
 20
96.03791006181839
 30
0
 11
60.89892828623115
 21
96.03791006181839
 31
0
  0
LINE
  8
1
 62
7
 10
61.74745642365501
 20
96.88643819924226
 30
0
 11
61.74745642365501
 21
96.95714887736091
 31
0
  0
LINE
  8
1
 62
7
 10
61.74745642365501
 20
96.95714887736091
 30
0
 11
60.8282176081125
 21
96.03791006181839
 31
0
  0
LINE
  8
1
 62
7
 10
61.75806302537281
 20
97.44151702247369
 30
0
 11
60.3438494629997
 21
96.0273034601006
 31
0
  0
LINE
  8
1
 62
7
 10
60.4393088784599
 20
98.26529642255602
 30
0
 11
59.52007006291738
 21
97.34605760701351
 31
0
  0
LINE
  8
1
 62
7
 10
60.92367702357269
 20
98.2759030242738
 30
0
 11
59.5094634611996
 21
96.86168946190074
 31
0
  0
LINE
  8
1
 62
7
 10
60.6337632432862
 20
110.5658168045603
 30
0
 11
61.64797680565929
 21
109.5516032421872
 31
0
  0
LINE
  8
1
 62
7
 10
60.63376324328619
 20
107.7373896798141
 30
0
 11
59.61954968091321
 21
108.7516032421871
 31
0
  0
LINE
  8
1
 62
7
 10
60.63376324328619
 20
107.7373896798141
 30
0
 11
61.75806302537281
 21
108.8616894619007
 31
0
  0
LINE
  8
1
 62
7
 10
60.4393088784599
 20
108.0379100618184
 30
0
 11
60.64083431109807
 21
108.2394354944566
 31
0
  0
LINE
  8
1
 62
7
 10
59.52007006291738
 20
108.8864381992423
 30
0
 11
60.36859820034124
 21
108.0379100618184
 31
0
  0
LINE
  8
1
 62
7
 10
59.72159549555555
 20
109.1586743099991
 30
0
 11
59.52007006291738
 21
108.9571488773609
 31
0
  0
LINE
  8
1
 62
7
 10
61.74745642365501
 20
109.3460576070135
 30
0
 11
61.54593099101684
 21
109.1445321743753
 31
0
  0
LINE
  8
1
 62
7
 10
60.89892828623115
 20
110.265296422556
 30
0
 11
61.74745642365501
 21
109.4167682851322
 31
0
  0
LINE
  8
1
 62
7
 10
60.62669217547433
 20
110.0637709899178
 30
0
 11
60.8282176081125
 21
110.265296422556
 31
0
  0
LINE
  8
1
 62
7
 10
59.50946346119959
 20
109.370806344355
 30
0
 11
60.85296634545404
 21
108.0273034601006
 31
0
  0
LINE
  8
1
 62
7
 10
60.41456014111836
 20
110.2759030242738
 30
0
 11
61.75806302537281
 21
108.9324001400194
 31
0
  0
LINE
  8
1
 62
7
 10
60.6337632432862
 20
110.5658168045603
 30
0
 11
59.5094634611996
 21
109.4415170224737
 31
0
  0
LINE
  8
1
 62
7
 10
60.4393088784599
 20
108.0379100618184
 30
0
 11
60.36859820034124
 21
108.0379100618184
 31
0
  0
LINE
  8
1
 62
7
 10
59.52007006291738
 20
108.8864381992423
 30
0
 11
59.52007006291738
 21
108.9571488773609
 31
0
  0
LINE
  8
1
 62
7
 10
59.50946346119959
 20
109.370806344355
 30
0
 11
59.5094634611996
 21
109.4415170224737
 31
0
  0
LINE
  8
1
 62
7
 10
60.92367702357269
 20
108.0273034601006
 30
0
 11
60.85296634545404
 21
108.0273034601006
 31
0
  0
LINE
  8
1
 62
7
 10
61.75806302537281
 20
108.8616894619007
 30
0
 11
61.75806302537281
 21
108.9324001400194
 31
0
  0
LINE
  8
1
 62
7
 10
60.41456014111836
 20
110.2759030242738
 30
0
 11
60.3438494629997
 21
110.2759030242738
 31
0
  0
LINE
  8
1
 62
7
 10
60.89892828623115
 20
110.265296422556
 30
0
 11
60.8282176081125
 21
110.265296422556
 31
0
  0
LINE
  8
1
 62
7
 10
61.74745642365501
 20
109.3460576070135
 30
0
 11
61.74745642365501
 21
109.4167682851322
 31
0
  0
LINE
  8
1
 62
7
 10
60.8282176081125
 20
110.265296422556
 30
0
 11
61.74745642365501
 21
109.3460576070135
 31
0
  0
LINE
  8
1
 62
7
 10
60.3438494629997
 20
110.2759030242738
 30
0
 11
61.75806302537281
 21
108.8616894619007
 31
0
  0
LINE
  8
1
 62
7
 10
59.52007006291738
 20
108.9571488773609
 30
0
 11
60.4393088784599
 21
108.0379100618184
 31
0
  0
LINE
  8
1
 62
7
 10
59.5094634611996
 20
109.4415170224737
 30
0
 11
60.92367702357269
 21
108.0273034601006
 31
0
  0
LINE
  8
1
 62
7
 10
49.0682373432503
 20
96.7516032421872
 30
0
 11
48.72618295102249
 21
96.40954884995938
 31
0
  0
LINE
  8
1
 62
7
 10
47.03981021850421
 20
97.55160324218721
 30
0
 11
47.55019652881409
 21
98.0619895524972
 31
0
  0
LINE
  8
1
 62
7
 10
46.94033060050839
 20
97.34605760701351
 30
0
 11
47.14185603314656
 21
97.14453217437533
 31
0
  0
LINE
  8
1
 62
7
 10
48.96619152860784
 20
97.15867430999909
 30
0
 11
49.16771696124601
 21
96.95714887736091
 31
0
  0
LINE
  8
1
 62
7
 10
49.16771696124601
 20
96.88643819924226
 30
0
 11
48.69840851336726
 21
96.4171297513635
 31
0
  0
LINE
  8
1
 62
7
 10
46.92972399879061
 20
96.86168946190074
 30
0
 11
47.38186461073196
 21
96.40954884995939
 31
0
  0
LINE
  8
1
 62
7
 10
49.17832356296381
 20
97.37080634435505
 30
0
 11
48.29725959272462
 21
96.48974237411585
 31
0
  0
LINE
  8
1
 62
7
 10
46.94033060050839
 20
97.34605760701351
 30
0
 11
46.94033060050839
 21
97.41676828513215
 31
0
  0
LINE
  8
1
 62
7
 10
46.92972399879061
 20
96.86168946190074
 30
0
 11
46.92972399879059
 21
96.93240014001937
 31
0
  0
LINE
  8
1
 62
7
 10
49.17832356296381
 20
97.37080634435505
 30
0
 11
49.17832356296381
 21
97.44151702247369
 31
0
  0
LINE
  8
1
 62
7
 10
49.16771696124601
 20
96.88643819924226
 30
0
 11
49.16771696124601
 21
96.95714887736091
 31
0
  0
LINE
  8
1
 62
7
 10
49.16771696124601
 20
96.95714887736091
 30
0
 11
48.64203588345454
 21
96.43146779956943
 31
0
  0
LINE
  8
1
 62
7
 10
49.17832356296381
 20
97.44151702247369
 30
0
 11
48.23206218931327
 21
96.49525564882316
 31
0
  0
LINE
  8
1
 62
7
 10
47.38186461073193
 20
109.893657634415
 30
0
 11
46.92972399879061
 21
109.4415170224737
 31
0
  0
LINE
  8
1
 62
7
 10
48.75975767523865
 20
108.4431235741755
 30
0
 11
49.17832356296381
 21
108.8616894619007
 31
0
  0
LINE
  8
1
 62
7
 10
46.94033060050839
 20
108.8864381992423
 30
0
 11
47.57488551773226
 21
108.2518832820184
 31
0
  0
LINE
  8
1
 62
7
 10
47.14185603314656
 20
109.1586743099991
 30
0
 11
46.94033060050839
 21
108.9571488773609
 31
0
  0
LINE
  8
1
 62
7
 10
49.16771696124601
 20
109.3460576070135
 30
0
 11
48.96619152860784
 21
109.1445321743753
 31
0
  0
LINE
  8
1
 62
7
 10
46.92972399879059
 20
109.370806344355
 30
0
 11
47.92845852771872
 21
108.3720718154269
 31
0
  0
LINE
  8
1
 62
7
 10
46.94033060050839
 20
108.8864381992423
 30
0
 11
46.94033060050839
 21
108.9571488773609
 31
0
  0
LINE
  8
1
 62
7
 10
46.92972399879059
 20
109.370806344355
 30
0
 11
46.92972399879061
 21
109.4415170224737
 31
0
  0
LINE
  8
1
 62
7
 10
49.17832356296381
 20
108.8616894619007
 30
0
 11
49.17832356296381
 21
108.9324001400194
 31
0
  0
LINE
  8
1
 62
7
 10
49.16771696124601
 20
109.3460576070135
 30
0
 11
49.16771696124601
 21
109.4167682851322
 31
0
  0
LINE
  8
1
 62
7
 10
46.94033060050839
 20
108.9571488773609
 30
0
 11
47.62493102807863
 21
108.2725484497907
 31
0
  0
LINE
  8
1
 62
7
 10
46.92972399879061
 20
109.4415170224737
 30
0
 11
47.9852079570185
 21
108.3860330642458
 31
0
  0
LINE
  8
1
 62
7
 10
47.62493102807859
 20
98.03065803458371
 30
0
 11
46.94033060050839
 21
97.34605760701351
 31
0
  0
LINE
  8
1
 62
7
 10
47.92845852771867
 20
97.93113466894745
 30
0
 11
46.92972399879059
 21
96.93240014001937
 31
0
  0
LINE
  8
1
 62
7
 10
47.98520795701845
 20
97.91717342012856
 30
0
 11
46.92972399879061
 21
96.86168946190074
 31
0
  0
LINE
  8
1
 62
7
 10
48.75975767523867
 20
97.86008291019881
 30
0
 11
49.17832356296381
 21
97.44151702247369
 31
0
  0
LINE
  8
1
 62
7
 10
47.57488551773221
 20
98.05132320235599
 30
0
 11
46.94033060050839
 21
97.41676828513215
 31
0
  0
LINE
  8
1
 62
7
 10
47.55019652881412
 20
108.2412169318772
 30
0
 11
47.03981021850421
 21
108.7516032421871
 31
0
  0
LINE
  8
1
 62
7
 10
48.23206218931333
 20
109.8079508355512
 30
0
 11
49.17832356296381
 21
108.8616894619007
 31
0
  0
LINE
  8
1
 62
7
 10
48.29725959272467
 20
109.8134641102585
 30
0
 11
49.17832356296381
 21
108.9324001400194
 31
0
  0
LINE
  8
1
 62
7
 10
48.64203588345458
 20
109.8717386848049
 30
0
 11
49.16771696124601
 21
109.3460576070135
 31
0
  0
LINE
  8
1
 62
7
 10
48.6984085133673
 20
109.8860767330109
 30
0
 11
49.16771696124601
 21
109.4167682851322
 31
0
  0
LINE
  8
1
 62
7
 10
48.72618295102251
 20
109.893657634415
 30
0
 11
49.0682373432503
 21
109.5516032421872
 31
0
  0
LINE
  8
1
 62
3
  6
DIVIDE
 10
19.64397189287486
 20
116.4242897307989
 30
0
 11
14.97636151026158
 21
89.95295582682536
 31
0
  0
LINE
  8
1
 62
3
  6
DIVIDE
 10
21.64397189287486
 20
116.4242897307989
 30
0
 11
16.97636151026158
 21
89.95295582682536
 31
0
  0
LINE
  8
1
 62
7
 10
19.4195629269495
 20
115.1516032421872
 30
0
 11
-11.1631128717867
 21
115.1516032421872
 31
0
  0
LINE
  8
1
 62
7
 10
19.34903213466611
 20
114.7516032421872
 30
0
 11
-10.70311287178669
 21
114.7516032421872
 31
0
  0
LINE
  8
1
 62
7
 10
20.50266262726548
 20
109.9516032421872
 30
0
 11
32.57688712821329
 21
109.9516032421872
 31
0
  0
LINE
  8
1
 62
7
 10
18.4321318349821
 20
109.5516032421872
 30
0
 11
-11.1631128717867
 21
109.5516032421872
 31
0
  0
LINE
  8
1
 62
7
 10
18.29107025041532
 20
108.7516032421872
 30
0
 11
-11.1631128717867
 21
108.7516032421872
 31
0
  0
LINE
  8
1
 62
7
 10
18.31620806648052
 20
97.55160324218721
 30
0
 11
33.03688712821327
 21
97.55160324218721
 31
0
  0
LINE
  8
1
 62
7
 10
16.17514648191374
 20
96.7516032421872
 30
0
 11
-11.1631128717867
 21
96.7516032421872
 31
0
  0
LINE
  8
1
 62
7
 10
16.10461568963036
 20
96.35160324218721
 30
0
 11
-10.70311287178669
 21
96.35160324218721
 31
0
  0
LINE
  8
1
 62
7
 10
15.25824618222973
 20
91.55160324218721
 30
0
 11
-10.70311287178669
 21
91.55160324218721
 31
0
  0
LINE
  8
1
 62
7
 10
15.18771538994634
 20
91.15160324218721
 30
0
 11
-11.1631128717867
 21
91.15160324218721
 31
0
  0
LINE
  8
1
 62
7
 10
48.29323003448613
 20
112.8660786151419
 30
0
 11
48.39343503584675
 21
112.6410144971567
 31
0
  0
LINE
  8
1
 62
7
 10
48.39343503584675
 20
112.6410144971567
 30
0
 11
48.61849915383195
 21
112.5408094957961
 31
0
  0
LINE
  8
1
 62
7
 10
48.28388241735033
 20
113.4016032421872
 30
0
 11
48.29323003448613
 21
112.8660786151419
 31
0
  0
LINE
  8
1
 62
7
 10
48.61849915383195
 20
112.5408094957961
 30
0
 11
49.15402378087723
 21
112.5314618786604
 31
0
  0
LINE
  8
1
 62
7
 10
47.7146125259076
 20
112.6410144971567
 30
0
 11
47.81481752726833
 21
112.8660786151419
 31
0
  0
LINE
  8
1
 62
7
 10
47.48954840792251
 20
112.5408094957961
 30
0
 11
47.7146125259076
 21
112.6410144971567
 31
0
  0
LINE
  8
1
 62
7
 10
47.81481752726833
 20
112.8660786151419
 30
0
 11
47.82416514440402
 21
113.4016032421872
 31
0
  0
LINE
  8
1
 62
7
 10
46.95402378087724
 20
112.5314618786604
 30
0
 11
47.48954840792251
 21
112.5408094957961
 31
0
  0
LINE
  8
1
 62
7
 10
48.39343503584675
 20
111.9621919872177
 30
0
 11
48.29323003448613
 21
111.7371278692325
 31
0
  0
LINE
  8
1
 62
7
 10
48.61849915383195
 20
112.0623969885784
 30
0
 11
48.39343503584675
 21
111.9621919872177
 31
0
  0
LINE
  8
1
 62
7
 10
48.29323003448613
 20
111.7371278692325
 30
0
 11
48.28388241735033
 21
111.2016032421872
 31
0
  0
LINE
  8
1
 62
7
 10
49.15402378087723
 20
112.0717446057142
 30
0
 11
48.61849915383195
 21
112.0623969885784
 31
0
  0
LINE
  8
1
 62
7
 10
47.81481752726833
 20
111.7371278692325
 30
0
 11
47.7146125259076
 21
111.9621919872177
 31
0
  0
LINE
  8
1
 62
7
 10
47.7146125259076
 20
111.9621919872177
 30
0
 11
47.48954840792251
 21
112.0623969885784
 31
0
  0
LINE
  8
1
 62
7
 10
47.82416514440402
 20
111.2016032421872
 30
0
 11
47.81481752726833
 21
111.7371278692325
 31
0
  0
LINE
  8
1
 62
7
 10
47.48954840792251
 20
112.0623969885784
 30
0
 11
46.95402378087724
 21
112.0717446057142
 31
0
  0
LINE
  8
1
 62
7
 10
47.82416514440402
 20
113.4016032421872
 30
0
 11
48.28388241735033
 21
113.4016032421872
 31
0
  0
LINE
  8
1
 62
7
 10
47.82416514440402
 20
111.2016032421872
 30
0
 11
48.28388241735033
 21
111.2016032421872
 31
0
  0
LINE
  8
1
 62
7
 10
49.15402378087723
 20
112.0717446057142
 30
0
 11
49.15402378087723
 21
112.5314618786604
 31
0
  0
LINE
  8
1
 62
7
 10
46.95402378087724
 20
112.0717446057142
 30
0
 11
46.95402378087724
 21
112.5314618786604
 31
0
  0
LINE
  8
1
 62
7
 10
47.45402378087727
 20
105.7217446057143
 30
0
 11
47.45402378087727
 21
106.1814618786605
 31
0
  0
LINE
  8
1
 62
7
 10
49.65402378087726
 20
105.7217446057143
 30
0
 11
49.65402378087726
 21
106.1814618786605
 31
0
  0
LINE
  8
1
 62
7
 10
48.32416514440406
 20
104.8516032421873
 30
0
 11
48.78388241735036
 21
104.8516032421873
 31
0
  0
LINE
  8
1
 62
7
 10
48.32416514440406
 20
107.0516032421873
 30
0
 11
48.78388241735036
 21
107.0516032421873
 31
0
  0
LINE
  8
1
 62
7
 10
47.98954840792255
 20
105.7123969885785
 30
0
 11
47.45402378087727
 21
105.7217446057143
 31
0
  0
LINE
  8
1
 62
7
 10
48.32416514440406
 20
104.8516032421873
 30
0
 11
48.31481752726837
 21
105.3871278692326
 31
0
  0
LINE
  8
1
 62
7
 10
48.21461252590763
 20
105.6121919872178
 30
0
 11
47.98954840792255
 21
105.7123969885785
 31
0
  0
LINE
  8
1
 62
7
 10
48.31481752726837
 20
105.3871278692326
 30
0
 11
48.21461252590763
 21
105.6121919872178
 31
0
  0
LINE
  8
1
 62
7
 10
49.65402378087726
 20
105.7217446057143
 30
0
 11
49.11849915383198
 21
105.7123969885785
 31
0
  0
LINE
  8
1
 62
7
 10
48.79323003448616
 20
105.3871278692326
 30
0
 11
48.78388241735036
 21
104.8516032421873
 31
0
  0
LINE
  8
1
 62
7
 10
49.11849915383198
 20
105.7123969885785
 30
0
 11
48.89343503584679
 21
105.6121919872178
 31
0
  0
LINE
  8
1
 62
7
 10
48.89343503584679
 20
105.6121919872178
 30
0
 11
48.79323003448616
 21
105.3871278692326
 31
0
  0
LINE
  8
1
 62
7
 10
47.45402378087727
 20
106.1814618786605
 30
0
 11
47.98954840792255
 21
106.1908094957962
 31
0
  0
LINE
  8
1
 62
7
 10
48.31481752726837
 20
106.516078615142
 30
0
 11
48.32416514440406
 21
107.0516032421873
 31
0
  0
LINE
  8
1
 62
7
 10
47.98954840792255
 20
106.1908094957962
 30
0
 11
48.21461252590763
 21
106.2910144971568
 31
0
  0
LINE
  8
1
 62
7
 10
48.21461252590763
 20
106.2910144971568
 30
0
 11
48.31481752726837
 21
106.516078615142
 31
0
  0
LINE
  8
1
 62
7
 10
49.11849915383198
 20
106.1908094957962
 30
0
 11
49.65402378087726
 21
106.1814618786605
 31
0
  0
LINE
  8
1
 62
7
 10
48.78388241735036
 20
107.0516032421873
 30
0
 11
48.79323003448616
 21
106.516078615142
 31
0
  0
LINE
  8
1
 62
7
 10
48.89343503584679
 20
106.2910144971568
 30
0
 11
49.11849915383198
 21
106.1908094957962
 31
0
  0
LINE
  8
1
 62
7
 10
48.79323003448616
 20
106.516078615142
 30
0
 11
48.89343503584679
 21
106.2910144971568
 31
0
  0
LINE
  8
1
 62
7
 10
48.79323003448616
 20
100.9160786151418
 30
0
 11
48.89343503584679
 21
100.6910144971566
 31
0
  0
LINE
  8
1
 62
7
 10
48.89343503584679
 20
100.6910144971566
 30
0
 11
49.11849915383198
 21
100.590809495796
 31
0
  0
LINE
  8
1
 62
7
 10
48.78388241735036
 20
101.4516032421871
 30
0
 11
48.79323003448616
 21
100.9160786151418
 31
0
  0
LINE
  8
1
 62
7
 10
49.11849915383198
 20
100.590809495796
 30
0
 11
49.65402378087726
 21
100.5814618786603
 31
0
  0
LINE
  8
1
 62
7
 10
48.21461252590763
 20
100.6910144971566
 30
0
 11
48.31481752726837
 21
100.9160786151418
 31
0
  0
LINE
  8
1
 62
7
 10
47.98954840792255
 20
100.590809495796
 30
0
 11
48.21461252590763
 21
100.6910144971566
 31
0
  0
LINE
  8
1
 62
7
 10
48.31481752726837
 20
100.9160786151418
 30
0
 11
48.32416514440406
 21
101.4516032421871
 31
0
  0
LINE
  8
1
 62
7
 10
47.45402378087727
 20
100.5814618786603
 30
0
 11
47.98954840792255
 21
100.590809495796
 31
0
  0
LINE
  8
1
 62
7
 10
48.89343503584679
 20
100.0121919872176
 30
0
 11
48.79323003448616
 21
99.78712786923241
 31
0
  0
LINE
  8
1
 62
7
 10
49.11849915383198
 20
100.1123969885783
 30
0
 11
48.89343503584679
 21
100.0121919872176
 31
0
  0
LINE
  8
1
 62
7
 10
48.79323003448616
 20
99.78712786923241
 30
0
 11
48.78388241735036
 21
99.2516032421871
 31
0
  0
LINE
  8
1
 62
7
 10
49.65402378087726
 20
100.1217446057141
 30
0
 11
49.11849915383198
 21
100.1123969885783
 31
0
  0
LINE
  8
1
 62
7
 10
48.31481752726837
 20
99.78712786923241
 30
0
 11
48.21461252590763
 21
100.0121919872176
 31
0
  0
LINE
  8
1
 62
7
 10
48.21461252590763
 20
100.0121919872176
 30
0
 11
47.98954840792255
 21
100.1123969885783
 31
0
  0
LINE
  8
1
 62
7
 10
48.32416514440406
 20
99.2516032421871
 30
0
 11
48.31481752726837
 21
99.78712786923241
 31
0
  0
LINE
  8
1
 62
7
 10
47.98954840792255
 20
100.1123969885783
 30
0
 11
47.45402378087727
 21
100.1217446057141
 31
0
  0
LINE
  8
1
 62
7
 10
48.32416514440406
 20
101.4516032421871
 30
0
 11
48.78388241735036
 21
101.4516032421871
 31
0
  0
LINE
  8
1
 62
7
 10
48.32416514440406
 20
99.2516032421871
 30
0
 11
48.78388241735036
 21
99.2516032421871
 31
0
  0
LINE
  8
1
 62
7
 10
49.65402378087726
 20
100.1217446057141
 30
0
 11
49.65402378087726
 21
100.5814618786603
 31
0
  0
LINE
  8
1
 62
7
 10
47.45402378087727
 20
100.1217446057141
 30
0
 11
47.45402378087727
 21
100.5814618786603
 31
0
  0
LINE
  8
1
 62
7
 10
46.95402378087724
 20
93.77174460571416
 30
0
 11
46.95402378087724
 21
94.23146187866036
 31
0
  0
LINE
  8
1
 62
7
 10
49.15402378087723
 20
93.77174460571416
 30
0
 11
49.15402378087723
 21
94.23146187866036
 31
0
  0
LINE
  8
1
 62
7
 10
47.82416514440402
 20
92.90160324218715
 30
0
 11
48.28388241735033
 21
92.90160324218715
 31
0
  0
LINE
  8
1
 62
7
 10
47.82416514440402
 20
95.10160324218714
 30
0
 11
48.28388241735033
 21
95.10160324218714
 31
0
  0
LINE
  8
1
 62
7
 10
47.48954840792251
 20
93.76239698857836
 30
0
 11
46.95402378087724
 21
93.77174460571416
 31
0
  0
LINE
  8
1
 62
7
 10
47.82416514440402
 20
92.90160324218715
 30
0
 11
47.81481752726833
 21
93.43712786923246
 31
0
  0
LINE
  8
1
 62
7
 10
47.7146125259076
 20
93.66219198721765
 30
0
 11
47.48954840792251
 21
93.76239698857836
 31
0
  0
LINE
  8
1
 62
7
 10
47.81481752726833
 20
93.43712786923246
 30
0
 11
47.7146125259076
 21
93.66219198721765
 31
0
  0
LINE
  8
1
 62
7
 10
49.15402378087723
 20
93.77174460571416
 30
0
 11
48.61849915383195
 21
93.76239698857836
 31
0
  0
LINE
  8
1
 62
7
 10
48.29323003448613
 20
93.43712786923246
 30
0
 11
48.28388241735033
 21
92.90160324218715
 31
0
  0
LINE
  8
1
 62
7
 10
48.61849915383195
 20
93.76239698857836
 30
0
 11
48.39343503584675
 21
93.66219198721765
 31
0
  0
LINE
  8
1
 62
7
 10
48.39343503584675
 20
93.66219198721765
 30
0
 11
48.29323003448613
 21
93.43712786923246
 31
0
  0
LINE
  8
1
 62
7
 10
46.95402378087724
 20
94.23146187866036
 30
0
 11
47.48954840792251
 21
94.24080949579604
 31
0
  0
LINE
  8
1
 62
7
 10
47.81481752726833
 20
94.56607861514186
 30
0
 11
47.82416514440402
 21
95.10160324218714
 31
0
  0
LINE
  8
1
 62
7
 10
47.48954840792251
 20
94.24080949579604
 30
0
 11
47.7146125259076
 21
94.34101449715666
 31
0
  0
LINE
  8
1
 62
7
 10
47.7146125259076
 20
94.34101449715666
 30
0
 11
47.81481752726833
 21
94.56607861514186
 31
0
  0
LINE
  8
1
 62
7
 10
48.61849915383195
 20
94.24080949579604
 30
0
 11
49.15402378087723
 21
94.23146187866036
 31
0
  0
LINE
  8
1
 62
7
 10
48.28388241735033
 20
95.10160324218714
 30
0
 11
48.29323003448613
 21
94.56607861514186
 31
0
  0
LINE
  8
1
 62
7
 10
48.39343503584675
 20
94.34101449715666
 30
0
 11
48.61849915383195
 21
94.24080949579604
 31
0
  0
LINE
  8
1
 62
7
 10
48.29323003448613
 20
94.56607861514186
 30
0
 11
48.39343503584675
 21
94.34101449715666
 31
0
  0
ARC
  8
1
 62
7
 10
26.63666877853895
 20
93.95160324218722
 30
0
 40
6.406730370618681
 50
338.0000331712248
 51
21.99996682877509
  0
ARC
  8
1
 62
7
 10
-4.804445783514971
 20
93.95160324218722
 30
0
 40
6.368223725518751
 50
157.8599894121351
 51
202.140010587865
  0
ARC
  8
1
 62
7
 10
-4.804445783514989
 20
112.3516032421872
 30
0
 40
6.36822372551874
 50
157.859989412135
 51
202.1400105878649
  0
ARC
  8
1
 62
7
 10
26.63666877853897
 20
112.3516032421872
 30
0
 40
6.406730370618661
 50
338.0000331712248
 51
21.99996682877527
  0
ARC
  8
1
 62
7
 10
18.43688712821329
 20
103.1516032421872
 30
0
 40
1.500000000000012
 50
128.0750725470429
 51
211.9249274529569
  0
ARC
  8
1
 62
7
 10
18.43688712821329
 20
103.1516032421872
 30
0
 40
1.500000000000032
 50
294.684429507671
 51
45.31557049232822
  0
CIRCLE
  8
1
 62
7
 10
25.93688712821329
 20
93.65160324218721
 30
0
 40
1.20000000000001
  0
CIRCLE
  8
1
 62
3
 10
25.93688712821329
 20
93.65160324218721
 30
0
 40
1.500000000000011
  0
CIRCLE
  8
1
 62
3
 10
10.93688712821329
 20
93.65160324218721
 30
0
 40
1.5
  0
CIRCLE
  8
1
 62
7
 10
10.93688712821329
 20
93.65160324218721
 30
0
 40
1.200000000000001
  0
CIRCLE
  8
1
 62
7
 10
10.93688712821329
 20
103.1516032421872
 30
0
 40
1.200000000000001
  0
CIRCLE
  8
1
 62
3
 10
10.93688712821329
 20
103.1516032421872
 30
0
 40
1.5
  0
CIRCLE
  8
1
 62
7
 10
25.93688712821329
 20
103.1516032421872
 30
0
 40
1.20000000000001
  0
CIRCLE
  8
1
 62
3
 10
25.93688712821329
 20
103.1516032421872
 30
0
 40
1.500000000000011
  0
CIRCLE
  8
1
 62
7
 10
10.93688712821329
 20
112.6516032421872
 30
0
 40
1.200000000000001
  0
CIRCLE
  8
1
 62
3
 10
10.93688712821329
 20
112.6516032421872
 30
0
 40
1.5
  0
CIRCLE
  8
1
 62
3
 10
25.93688712821329
 20
112.6516032421872
 30
0
 40
1.500000000000011
  0
CIRCLE
  8
1
 62
7
 10
25.93688712821329
 20
112.6516032421872
 30
0
 40
1.20000000000001
  0
CIRCLE
  8
1
 62
7
  6
DASHED
 10
10.93688712821329
 20
93.65160324218721
 30
0
 40
2.200000000000015
  0
CIRCLE
  8
1
 62
7
  6
DASHED
 10
25.93688712821329
 20
93.65160324218721
 30
0
 40
2.20000000000001
  0
CIRCLE
  8
1
 62
7
  6
DASHED
 10
25.93688712821329
 20
112.6516032421872
 30
0
 40
2.20000000000001
  0
CIRCLE
  8
1
 62
7
  6
DASHED
 10
10.93688712821329
 20
112.6516032421872
 30
0
 40
2.200000000000015
  0
CIRCLE
  8
1
 62
7
 10
10.93688712821329
 20
103.1516032421872
 30
0
 40
2.200000000000001
  0
CIRCLE
  8
1
 62
7
 10
25.93688712821329
 20
103.1516032421872
 30
0
 40
2.20000000000001
  0
CIRCLE
  8
1
 62
3
 10
-4.063112871786711
 20
93.65160324218721
 30
0
 40
1.5
  0
CIRCLE
  8
1
 62
7
 10
-4.063112871786711
 20
93.65160324218721
 30
0
 40
1.200000000000001
  0
CIRCLE
  8
1
 62
7
 10
-4.063112871786711
 20
103.1516032421872
 30
0
 40
1.200000000000001
  0
CIRCLE
  8
1
 62
3
 10
-4.063112871786711
 20
103.1516032421872
 30
0
 40
1.5
  0
CIRCLE
  8
1
 62
7
 10
-4.063112871786711
 20
112.6516032421872
 30
0
 40
1.200000000000001
  0
CIRCLE
  8
1
 62
3
 10
-4.063112871786711
 20
112.6516032421872
 30
0
 40
1.5
  0
CIRCLE
  8
1
 62
7
  6
DASHED
 10
-4.063112871786711
 20
93.65160324218721
 30
0
 40
2.200000000000015
  0
CIRCLE
  8
1
 62
7
  6
DASHED
 10
-4.063112871786711
 20
112.6516032421872
 30
0
 40
2.200000000000015
  0
CIRCLE
  8
1
 62
7
 10
-4.063112871786711
 20
103.1516032421872
 30
0
 40
2.200000000000001
  0
CIRCLE
  8
1
 62
7
 10
3.436887128213289
 20
103.1516032421872
 30
0
 40
1.5
  0
CIRCLE
  8
1
 62
7
 10
48.0540237808772
 20
112.3016032421872
 30
0
 40
2.499999999999974
  0
CIRCLE
  8
1
 62
7
 10
48.0540237808772
 20
112.3016032421872
 30
0
 40
2.099999999999977
  0
CIRCLE
  8
1
 62
7
 10
48.55402378087724
 20
105.9516032421873
 30
0
 40
2.099999999999863
  0
CIRCLE
  8
1
 62
7
 10
48.55402378087724
 20
105.9516032421873
 30
0
 40
2.499999999999989
  0
CIRCLE
  8
1
 62
7
 10
48.55402378087724
 20
100.3516032421871
 30
0
 40
2.499999999999961
  0
CIRCLE
  8
1
 62
7
 10
48.55402378087724
 20
100.3516032421871
 30
0
 40
2.099999999999976
  0
CIRCLE
  8
1
 62
7
 10
48.0540237808772
 20
94.00160324218714
 30
0
 40
2.099999999999977
  0
CIRCLE
  8
1
 62
7
 10
48.0540237808772
 20
94.00160324218714
 30
0
 40
2.49999999999996
  0
ARC
  8
1
 62
7
 10
60.6337632432862
 20
96.10160324218721
 30
0
 40
0.3999999999999986
 50
180
 51
0
  0
TEXT
  8
1
 62
2
 10
39.16660755632459
 20
75.85565809500281
 30
0
 40
3.5
  1
UNION TOOL CO.
 41
0.7200000000000003
  7
COMPLEX
  0
TEXT
  8
1
 62
2
 10
-13.0666549642534
 20
125.391407900802
 30
0
 40
3.5
  1
MODEL : GW2
 41
0.7200000000000003
  7
COMPLEX
  0
ENDSEC
  0
EOF
