  0
SECTION
  2
HEADER
  9
$ACADVER
  1
AC1009
  9
$INSBASE
 10
0
 20
0
  9
$EXTMIN
 10
1.845607001883893
 20
6.25498114745179
  9
$EXTMAX
 10
79.00403081661933
 20
54.659006052282
  9
$LIMMIN
 10
1.845607001883893
 20
6.25498114745179
  9
$LIMMAX
 10
79.00403081661933
 20
54.659006052282
  9
$VIEWCTR
 10
10
 20
10
  9
$VIEWSIZE
 40
10
  9
$SNAPMODE
 70
0
  9
$SNAPUNIT
 10
1
 20
1
  9
$SNAPBASE
 10
0
 20
0
  9
$SNAPANG
 50
0
  9
$SNAPSTYLE
 70
0
  9
$SNAPISOPAIR
 70
0
  9
$GRIDMODE
 70
0
  9
$GRIDUNIT
 10
0
 20
0
  9
$ORTHOMODE
 70
0
  9
$REGENMODE
 70
1
  9
$FILLMODE
 70
1
  9
$QTEXTMODE
 70
0
  9
$DRAGMODE
 70
2
  9
$LTSCALE
 40
1
  9
$OSMODE
 70
0
  9
$ATTMODE
 70
1
  9
$TEXTSIZE
 40
3.5
  9
$TRACEWID
 40
0.5
  9
$TEXTSTYLE
  7
STANDARD
  9
$CLAYER
  8
0
  9
$CELTYPE
  6
BYLAYER
  9
$CECOLOR
 62
256
  9
$DIMSCALE
 40
1
  9
$DIMASZ
 40
0.18
  9
$DIMEXO
 40
0.0625
  9
$DIMDLI
 40
0.38
  9
$DIMRND
 40
0
  9
$DIMDLE
 40
0
  9
$DIMEXE
 40
0.18
  9
$DIMTP
 40
0
  9
$DIMTM
 40
0
  9
$DIMTXT
 40
0.18
  9
$DIMCEN
 40
0.09
  9
$DIMTSZ
 40
0
  9
$DIMTOL
 70
0
  9
$DIMLIM
 70
0
  9
$DIMTIH
 70
1
  9
$DIMTOH
 70
1
  9
$DIMSE1
 70
0
  9
$DIMSE2
 70
0
  9
$DIMTAD
 70
0
  9
$DIMZIN
 70
0
  9
$DIMBLK
  1

  9
$DIMASO
 70
1
  9
$DIMSHO
 70
1
  9
$DIMPOST
  1

  9
$DIMAPOST
  1

  9
$DIMALT
 70
0
  9
$DIMALTD
 70
2
  9
$DIMALTF
 40
25.4
  9
$DIMLFAC
 40
1
  9
$DIMTOFL
 70
0
  9
$DIMTVP
 40
0
  9
$DIMTIX
 70
0
  9
$DIMSOXD
 70
0
  9
$DIMSAH
 70
0
  9
$DIMBLK1
  1

  9
$DIMBLK2
  1

  9
$DIMSTYLE
  2
*UNNAMED
  9
$DIMCLRD
 70
0
  9
$DIMCLRE
 70
0
  9
$DIMCLRT
 70
0
  9
$DIMTFAC
 40
1
  9
$DIMGAP
 40
0.09
  9
$LUNITS
 70
2
  9
$LUPREC
 70
4
  9
$AXISMODE
 70
0
  9
$AXISUNIT
 10
0
 20
0
  9
$SKETCHINC
 40
0.1
  9
$FILLETRAD
 40
2
  9
$AUNITS
 70
0
  9
$AUPREC
 70
0
  9
$MENU
  1
ACAD
  9
$ELEVATION
 40
0
  9
$THICKNESS
 40
0
  9
$VIEWDIR
 10
0
 20
0
 30
1
  9
$LIMCHECK
 70
0
  9
$BLIPMODE
 70
1
  9
$CHAMFERA
 40
0
  9
$CHAMFERB
 40
0
  9
$FASTZOOM
 70
1
  9
$SKPOLY
 70
0
  9
$ANGBASE
 50
0
  9
$ANGDIR
 70
0
  9
$PDMODE
 70
0
  9
$PDSIZE
 40
0
  9
$PLINEWID
 40
0
  9
$COORDS
 70
2
  0
ENDSEC
  0
SECTION
  2
TABLES
  0
TABLE
  2
DIMSTYLE
 70
0
  0
ENDTAB
  0
TABLE
  2
LTYPE
 70
9
  0
LTYPE
  2
CONTINUOUS
 70
64
  3
Solid line
 72
65
 73
0
 40
0
  0
LTYPE
  2
BORDER
 70
64
  3
__ __ . __ __ .
 72
65
 73
6
 40
3.55334846515229
 49
1.01524241861494
 49
-0.50762120930747
 49
1.01524241861494
 49
-0.50762120930747
 49
0
 49
-0.50762120930747
  0
LTYPE
  2
CENTER
 70
64
  3
____ _ ____ _
 72
65
 73
4
 40
4.06096967445976
 49
2.53810604653735
 49
-0.50762120930747
 49
0.50762120930747
 49
-0.50762120930747
  0
LTYPE
  2
DASHDOT
 70
64
  3
__ . __ . __ .
 72
65
 73
4
 40
2.03048483722988
 49
1.01524241861494
 49
-0.50762120930747
 49
0
 49
-0.50762120930747
  0
LTYPE
  2
DASHED
 70
64
  3
__ __ __ __ __
 72
65
 73
2
 40
1.52286362792241
 49
1.01524241861494
 49
-0.50762120930747
  0
LTYPE
  2
DIVIDE
 70
64
  3
__ . . __ . . 
 72
65
 73
6
 40
2.53810604653735
 49
1.01524241861494
 49
-0.50762120930747
 49
0
 49
-0.50762120930747
 49
0
 49
-0.50762120930747
  0
LTYPE
  2
DOT
 70
64
  3
..............
 72
65
 73
4
 40
1.01524241861494
 49
0
 49
-0.50762120930747
 49
0
 49
-0.50762120930747
  0
LTYPE
  2
HIDDEN
 70
64
  3
_ _ _ _ _ _ _
 72
65
 73
2
 40
0.7614318139612051
 49
0.50762120930747
 49
-0.253810604653735
  0
LTYPE
  2
PHANTOM
 70
64
  3
_____ _ _ _____ _ _ 
 72
65
 73
6
 40
5.0762120930747
 49
2.53810604653735
 49
-0.50762120930747
 49
0.50762120930747
 49
-0.50762120930747
 49
0.50762120930747
 49
-0.50762120930747
  0
ENDTAB
  0
TABLE
  2
LAYER
 70
3
  0
LAYER
  2
1
 70
0
 62
7
  6
CONTINUOUS
  0
LAYER
  2
0
 70
0
 62
7
  6
CONTINUOUS
  0
ENDTAB
  0
TABLE
  2
STYLE
 70
4
  0
STYLE
  2
STANDARD
 70
0
 40
0
 41
1
 50
0
 71
0
 42
3.5
  3
txt
  4

  0
STYLE
  2
SIMPLEX
 70
0
 40
0
 41
1
 50
0
 71
0
 42
3.5
  3
simplex
  4

  0
STYLE
  2
COMPLEX
 70
0
 40
0
 41
1
 50
0
 71
0
 42
3.5
  3
complex
  4

  0
STYLE
  2
ITALIC
 70
0
 40
0
 41
1
 50
0
 71
0
 42
3.5
  3
italic
  4

  0
ENDTAB
  0
TABLE
  2
VIEW
 70
0
  0
ENDTAB
  0
ENDSEC
  0
SECTION
  2
BLOCKS
  0
BLOCK
  8
0
  2
TOP__1
 70
0
 10
-407.4011133108585
 20
-96.26066078317902
 30
0
  0
LINE
  8
1
 62
7
 10
49.06462154614151
 20
28.31449017630973
 30
0
 11
49.06462154614151
 21
28.78118947522727
 31
0
  0
LINE
  8
1
 62
7
 10
50.86462154614146
 20
28.31449017630973
 30
0
 11
50.86462154614146
 21
28.78118947522727
 31
0
  0
LINE
  8
1
 62
7
 10
49.73127189668271
 20
27.64783982576852
 30
0
 11
50.19797119560026
 21
27.64783982576852
 31
0
  0
LINE
  8
1
 62
7
 10
49.73127189668271
 20
29.4478398257685
 30
0
 11
50.19797119560026
 21
29.4478398257685
 31
0
  0
LINE
  8
1
 62
7
 10
49.4001461731868
 20
28.30863357215963
 30
0
 11
49.06462154614151
 21
28.31449017630973
 31
0
  0
LINE
  8
1
 62
7
 10
49.73127189668271
 20
27.64783982576852
 30
0
 11
49.72541529253256
 21
27.98336445281381
 31
0
  0
LINE
  8
1
 62
7
 10
49.62521029117188
 20
28.20842857079895
 30
0
 11
49.4001461731868
 21
28.30863357215963
 31
0
  0
LINE
  8
1
 62
7
 10
49.72541529253256
 20
27.98336445281381
 30
0
 11
49.62521029117188
 21
28.20842857079895
 31
0
  0
LINE
  8
1
 62
7
 10
50.86462154614146
 20
28.31449017630973
 30
0
 11
50.52909691909618
 21
28.30863357215963
 31
0
  0
LINE
  8
1
 62
7
 10
50.20382779975041
 20
27.98336445281381
 30
0
 11
50.19797119560026
 21
27.64783982576852
 31
0
  0
LINE
  8
1
 62
7
 10
50.52909691909618
 20
28.30863357215963
 30
0
 11
50.30403280111098
 21
28.20842857079895
 31
0
  0
LINE
  8
1
 62
7
 10
50.30403280111098
 20
28.20842857079895
 30
0
 11
50.20382779975041
 21
27.98336445281381
 31
0
  0
LINE
  8
1
 62
7
 10
49.06462154614151
 20
28.78118947522727
 30
0
 11
49.4001461731868
 21
28.78704607937737
 31
0
  0
LINE
  8
1
 62
7
 10
49.72541529253256
 20
29.11231519872319
 30
0
 11
49.73127189668271
 21
29.4478398257685
 31
0
  0
LINE
  8
1
 62
7
 10
49.4001461731868
 20
28.78704607937737
 30
0
 11
49.62521029117188
 21
28.88725108073805
 31
0
  0
LINE
  8
1
 62
7
 10
49.62521029117188
 20
28.88725108073805
 30
0
 11
49.72541529253256
 21
29.11231519872319
 31
0
  0
LINE
  8
1
 62
7
 10
50.52909691909618
 20
28.78704607937737
 30
0
 11
50.86462154614146
 21
28.78118947522727
 31
0
  0
LINE
  8
1
 62
7
 10
50.19797119560026
 20
29.4478398257685
 30
0
 11
50.20382779975041
 21
29.11231519872319
 31
0
  0
LINE
  8
1
 62
7
 10
50.30403280111098
 20
28.88725108073805
 30
0
 11
50.52909691909618
 21
28.78704607937737
 31
0
  0
LINE
  8
1
 62
7
 10
50.20382779975041
 20
29.11231519872319
 30
0
 11
50.30403280111098
 21
28.88725108073805
 31
0
  0
CIRCLE
  8
1
 62
7
 10
49.96462154614149
 20
28.5478398257685
 30
0
 40
1.450000000000046
  0
CIRCLE
  8
1
 62
7
 10
49.96462154614149
 20
28.5478398257685
 30
0
 40
1.75
  0
ENDBLK
  8
0
  0
BLOCK
  8
0
  2
TOP__2
 70
0
 10
-406.9011133108585
 20
-91.71066078317901
 30
0
  0
LINE
  8
1
 62
7
 10
50.70382779975041
 20
33.66231519872319
 30
0
 11
50.80403280111098
 21
33.43725108073805
 31
0
  0
LINE
  8
1
 62
7
 10
50.80403280111098
 20
33.43725108073805
 30
0
 11
51.02909691909618
 21
33.33704607937737
 31
0
  0
LINE
  8
1
 62
7
 10
50.69797119560026
 20
33.99783982576851
 30
0
 11
50.70382779975041
 21
33.66231519872319
 31
0
  0
LINE
  8
1
 62
7
 10
51.02909691909618
 20
33.33704607937737
 30
0
 11
51.36462154614146
 21
33.33118947522728
 31
0
  0
LINE
  8
1
 62
7
 10
50.12521029117188
 20
33.43725108073805
 30
0
 11
50.22541529253256
 21
33.66231519872319
 31
0
  0
LINE
  8
1
 62
7
 10
49.9001461731868
 20
33.33704607937737
 30
0
 11
50.12521029117188
 21
33.43725108073805
 31
0
  0
LINE
  8
1
 62
7
 10
50.22541529253256
 20
33.66231519872319
 30
0
 11
50.23127189668271
 21
33.99783982576851
 31
0
  0
LINE
  8
1
 62
7
 10
49.56462154614151
 20
33.33118947522728
 30
0
 11
49.9001461731868
 21
33.33704607937737
 31
0
  0
LINE
  8
1
 62
7
 10
50.80403280111098
 20
32.75842857079896
 30
0
 11
50.70382779975041
 21
32.53336445281381
 31
0
  0
LINE
  8
1
 62
7
 10
51.02909691909618
 20
32.85863357215963
 30
0
 11
50.80403280111098
 21
32.75842857079896
 31
0
  0
LINE
  8
1
 62
7
 10
50.70382779975041
 20
32.53336445281381
 30
0
 11
50.69797119560026
 21
32.19783982576853
 31
0
  0
LINE
  8
1
 62
7
 10
51.36462154614146
 20
32.86449017630973
 30
0
 11
51.02909691909618
 21
32.85863357215963
 31
0
  0
LINE
  8
1
 62
7
 10
50.22541529253256
 20
32.53336445281381
 30
0
 11
50.12521029117188
 21
32.75842857079896
 31
0
  0
LINE
  8
1
 62
7
 10
50.12521029117188
 20
32.75842857079896
 30
0
 11
49.9001461731868
 21
32.85863357215963
 31
0
  0
LINE
  8
1
 62
7
 10
50.23127189668271
 20
32.19783982576853
 30
0
 11
50.22541529253256
 21
32.53336445281381
 31
0
  0
LINE
  8
1
 62
7
 10
49.9001461731868
 20
32.85863357215963
 30
0
 11
49.56462154614151
 21
32.86449017630973
 31
0
  0
LINE
  8
1
 62
7
 10
50.23127189668271
 20
33.99783982576851
 30
0
 11
50.69797119560026
 21
33.99783982576851
 31
0
  0
LINE
  8
1
 62
7
 10
50.23127189668271
 20
32.19783982576853
 30
0
 11
50.69797119560026
 21
32.19783982576853
 31
0
  0
LINE
  8
1
 62
7
 10
51.36462154614146
 20
32.86449017630973
 30
0
 11
51.36462154614146
 21
33.33118947522728
 31
0
  0
LINE
  8
1
 62
7
 10
49.56462154614151
 20
32.86449017630973
 30
0
 11
49.56462154614151
 21
33.33118947522728
 31
0
  0
CIRCLE
  8
1
 62
7
 10
50.46462154614149
 20
33.0978398257685
 30
0
 40
1.75
  0
CIRCLE
  8
1
 62
7
 10
50.46462154614149
 20
33.0978398257685
 30
0
 40
1.450000000000046
  0
ENDBLK
  8
0
  0
BLOCK
  8
0
  2
TOP__3
 70
0
 10
-407.4011133108585
 20
-83.16066078317905
 30
0
  0
LINE
  8
1
 62
7
 10
50.20382779975041
 20
42.21231519872315
 30
0
 11
50.30403280111098
 21
41.98725108073801
 31
0
  0
LINE
  8
1
 62
7
 10
50.30403280111098
 20
41.98725108073801
 30
0
 11
50.52909691909618
 21
41.88704607937733
 31
0
  0
LINE
  8
1
 62
7
 10
50.19797119560026
 20
42.54783982576846
 30
0
 11
50.20382779975041
 21
42.21231519872315
 31
0
  0
LINE
  8
1
 62
7
 10
50.52909691909618
 20
41.88704607937733
 30
0
 11
50.86462154614146
 21
41.88118947522723
 31
0
  0
LINE
  8
1
 62
7
 10
49.62521029117188
 20
41.98725108073801
 30
0
 11
49.72541529253256
 21
42.21231519872315
 31
0
  0
LINE
  8
1
 62
7
 10
49.4001461731868
 20
41.88704607937733
 30
0
 11
49.62521029117188
 21
41.98725108073801
 31
0
  0
LINE
  8
1
 62
7
 10
49.72541529253256
 20
42.21231519872315
 30
0
 11
49.73127189668271
 21
42.54783982576846
 31
0
  0
LINE
  8
1
 62
7
 10
49.06462154614151
 20
41.88118947522723
 30
0
 11
49.4001461731868
 21
41.88704607937733
 31
0
  0
LINE
  8
1
 62
7
 10
50.30403280111098
 20
41.30842857079891
 30
0
 11
50.20382779975041
 21
41.08336445281377
 31
0
  0
LINE
  8
1
 62
7
 10
50.52909691909618
 20
41.40863357215959
 30
0
 11
50.30403280111098
 21
41.30842857079891
 31
0
  0
LINE
  8
1
 62
7
 10
50.20382779975041
 20
41.08336445281377
 30
0
 11
50.19797119560026
 21
40.74783982576848
 31
0
  0
LINE
  8
1
 62
7
 10
50.86462154614146
 20
41.41449017630968
 30
0
 11
50.52909691909618
 21
41.40863357215959
 31
0
  0
LINE
  8
1
 62
7
 10
49.72541529253256
 20
41.08336445281377
 30
0
 11
49.62521029117188
 21
41.30842857079891
 31
0
  0
LINE
  8
1
 62
7
 10
49.62521029117188
 20
41.30842857079891
 30
0
 11
49.4001461731868
 21
41.40863357215959
 31
0
  0
LINE
  8
1
 62
7
 10
49.73127189668271
 20
40.74783982576848
 30
0
 11
49.72541529253256
 21
41.08336445281377
 31
0
  0
LINE
  8
1
 62
7
 10
49.4001461731868
 20
41.40863357215959
 30
0
 11
49.06462154614151
 21
41.41449017630968
 31
0
  0
LINE
  8
1
 62
7
 10
49.73127189668271
 20
42.54783982576846
 30
0
 11
50.19797119560026
 21
42.54783982576846
 31
0
  0
LINE
  8
1
 62
7
 10
49.73127189668271
 20
40.74783982576848
 30
0
 11
50.19797119560026
 21
40.74783982576848
 31
0
  0
LINE
  8
1
 62
7
 10
50.86462154614146
 20
41.41449017630968
 30
0
 11
50.86462154614146
 21
41.88118947522723
 31
0
  0
LINE
  8
1
 62
7
 10
49.06462154614151
 20
41.41449017630968
 30
0
 11
49.06462154614151
 21
41.88118947522723
 31
0
  0
CIRCLE
  8
1
 62
7
 10
49.96462154614149
 20
41.64783982576846
 30
0
 40
1.75
  0
CIRCLE
  8
1
 62
7
 10
49.96462154614149
 20
41.64783982576846
 30
0
 40
1.450000000000046
  0
ENDBLK
  8
0
  0
BLOCK
  8
0
  2
TOP__4
 70
0
 10
-406.9011133108585
 20
-87.71066078317904
 30
0
  0
LINE
  8
1
 62
7
 10
49.56462154614151
 20
36.86449017630969
 30
0
 11
49.56462154614151
 21
37.33118947522724
 31
0
  0
LINE
  8
1
 62
7
 10
51.36462154614146
 20
36.86449017630969
 30
0
 11
51.36462154614146
 21
37.33118947522724
 31
0
  0
LINE
  8
1
 62
7
 10
50.23127189668271
 20
36.19783982576849
 30
0
 11
50.69797119560026
 21
36.19783982576849
 31
0
  0
LINE
  8
1
 62
7
 10
50.23127189668271
 20
37.99783982576847
 30
0
 11
50.69797119560026
 21
37.99783982576847
 31
0
  0
LINE
  8
1
 62
7
 10
49.9001461731868
 20
36.8586335721596
 30
0
 11
49.56462154614151
 21
36.86449017630969
 31
0
  0
LINE
  8
1
 62
7
 10
50.23127189668271
 20
36.19783982576849
 30
0
 11
50.22541529253256
 21
36.53336445281378
 31
0
  0
LINE
  8
1
 62
7
 10
50.12521029117188
 20
36.75842857079892
 30
0
 11
49.9001461731868
 21
36.8586335721596
 31
0
  0
LINE
  8
1
 62
7
 10
50.22541529253256
 20
36.53336445281378
 30
0
 11
50.12521029117188
 21
36.75842857079892
 31
0
  0
LINE
  8
1
 62
7
 10
51.36462154614146
 20
36.86449017630969
 30
0
 11
51.02909691909618
 21
36.8586335721596
 31
0
  0
LINE
  8
1
 62
7
 10
50.70382779975041
 20
36.53336445281378
 30
0
 11
50.69797119560026
 21
36.19783982576849
 31
0
  0
LINE
  8
1
 62
7
 10
51.02909691909618
 20
36.8586335721596
 30
0
 11
50.80403280111098
 21
36.75842857079892
 31
0
  0
LINE
  8
1
 62
7
 10
50.80403280111098
 20
36.75842857079892
 30
0
 11
50.70382779975041
 21
36.53336445281378
 31
0
  0
LINE
  8
1
 62
7
 10
49.56462154614151
 20
37.33118947522724
 30
0
 11
49.9001461731868
 21
37.33704607937734
 31
0
  0
LINE
  8
1
 62
7
 10
50.22541529253256
 20
37.66231519872316
 30
0
 11
50.23127189668271
 21
37.99783982576847
 31
0
  0
LINE
  8
1
 62
7
 10
49.9001461731868
 20
37.33704607937734
 30
0
 11
50.12521029117188
 21
37.43725108073802
 31
0
  0
LINE
  8
1
 62
7
 10
50.12521029117188
 20
37.43725108073802
 30
0
 11
50.22541529253256
 21
37.66231519872316
 31
0
  0
LINE
  8
1
 62
7
 10
51.02909691909618
 20
37.33704607937734
 30
0
 11
51.36462154614146
 21
37.33118947522724
 31
0
  0
LINE
  8
1
 62
7
 10
50.69797119560026
 20
37.99783982576847
 30
0
 11
50.70382779975041
 21
37.66231519872316
 31
0
  0
LINE
  8
1
 62
7
 10
50.80403280111098
 20
37.43725108073802
 30
0
 11
51.02909691909618
 21
37.33704607937734
 31
0
  0
LINE
  8
1
 62
7
 10
50.70382779975041
 20
37.66231519872316
 30
0
 11
50.80403280111098
 21
37.43725108073802
 31
0
  0
CIRCLE
  8
1
 62
7
 10
50.46462154614149
 20
37.09783982576847
 30
0
 40
1.450000000000046
  0
CIRCLE
  8
1
 62
7
 10
50.46462154614149
 20
37.09783982576847
 30
0
 40
1.75
  0
ENDBLK
  8
0
  0
ENDSEC
  0
SECTION
  2
ENTITIES
  0
POINT
  8
1
 62
7
  6
CENTER
 10
61.03502004903579
 20
39.69724528093192
 30
0
  0
POINT
  8
1
 62
7
  6
CENTER
 10
61.03502004903579
 20
30.49783982576852
 30
0
  0
LINE
  8
1
 62
7
 10
28.1181232535629
 20
26.5978398257685
 30
0
 11
10.09965859271819
 21
26.5978398257685
 31
0
  0
LINE
  8
1
 62
7
 10
29.17102134777543
 20
26.89783982576848
 30
0
 11
39.04965859271816
 21
26.89783982576848
 31
0
  0
LINE
  8
1
 62
7
 10
29.75290038411338
 20
30.19783982576852
 30
0
 11
39.04965859271816
 21
30.19783982576852
 31
0
  0
LINE
  8
1
 62
7
 10
28.80579847832592
 20
30.4978398257685
 30
0
 11
10.09965859271819
 21
30.4978398257685
 31
0
  0
LINE
  8
1
 62
7
 10
29.92922736482183
 20
31.19783982576846
 30
0
 11
39.4996585927181
 21
31.19783982576846
 31
0
  0
LINE
  8
1
 62
7
 10
31.30457781434787
 20
38.9978398257685
 30
0
 11
39.4996585927181
 21
38.9978398257685
 31
0
  0
LINE
  8
1
 62
7
 10
30.42800670084378
 20
39.69783982576846
 30
0
 11
10.09965859271819
 21
39.69783982576846
 31
0
  0
LINE
  8
1
 62
7
 10
31.48090479505632
 20
39.99783982576844
 30
0
 11
39.04965859271816
 21
39.99783982576844
 31
0
  0
LINE
  8
1
 62
7
 10
32.06278383139426
 20
43.29783982576848
 30
0
 11
39.04965859271816
 21
43.29783982576848
 31
0
  0
LINE
  8
1
 62
7
 10
31.1156819256068
 20
43.59783982576847
 30
0
 11
10.09965859271819
 21
43.59783982576847
 31
0
  0
LINE
  8
1
 62
3
  6
DIVIDE
 10
32.25007089445357
 20
44.35999754154633
 30
0
 11
28.91281047503297
 21
25.4334531975565
 31
0
  0
LINE
  8
1
 62
3
  6
DIVIDE
 10
31.25007089445357
 20
44.35999754154633
 30
0
 11
27.91281047503297
 21
25.4334531975565
 31
0
  0
LINE
  8
1
 62
7
 10
59.53502004903579
 20
38.28717965398861
 30
0
 11
59.83502004903586
 21
38.58717965398866
 31
0
  0
LINE
  8
1
 62
7
 10
59.23502004903584
 20
38.58717965398855
 30
0
 11
59.53502004903579
 21
38.28717965398861
 31
0
  0
LINE
  8
1
 62
7
 10
59.83502004903586
 20
40.10790545271169
 30
0
 11
59.53502004903579
 21
40.40790545271175
 31
0
  0
LINE
  8
1
 62
7
 10
59.53502004903579
 20
40.40790545271175
 30
0
 11
59.23502004903584
 21
40.1079054527118
 31
0
  0
LINE
  8
1
 62
7
 10
59.23502004903584
 20
40.1079054527118
 30
0
 11
58.82435987725596
 21
39.69724528093192
 31
0
  0
LINE
  8
1
 62
7
 10
59.53502004903579
 20
31.90790545271184
 30
0
 11
59.23502004903584
 21
31.6079054527119
 31
0
  0
LINE
  8
1
 62
7
 10
59.83502004903586
 20
31.60790545271179
 30
0
 11
59.53502004903579
 21
31.90790545271184
 31
0
  0
LINE
  8
1
 62
7
 10
59.53502004903579
 20
29.7871796539887
 30
0
 11
59.83502004903586
 21
30.08717965398875
 31
0
  0
LINE
  8
1
 62
4
  6
CENTER
 10
59.53502004903579
 20
29.7871796539887
 30
0
 11
59.53502004903579
 21
25.88882834689446
 31
0
  0
LINE
  8
1
 62
7
 10
59.23502004903584
 20
30.08717965398864
 30
0
 11
59.53502004903579
 21
29.7871796539887
 31
0
  0
LINE
  8
1
 62
7
 10
58.82435987725596
 20
30.49783982576852
 30
0
 11
58.47450851346507
 21
30.84769118955936
 31
0
  0
LINE
  8
1
 62
7
 10
58.47450851346507
 20
30.84769118955936
 30
0
 11
58.82435987725593
 21
31.19754255335022
 31
0
  0
LINE
  8
1
 62
7
 10
60.59553158460652
 20
30.84769118955936
 30
0
 11
60.24568022081566
 21
30.49783982576852
 31
0
  0
LINE
  8
1
 62
7
 10
60.24568022081566
 20
31.19754255335022
 30
0
 11
60.59553158460652
 21
30.84769118955936
 31
0
  0
LINE
  8
1
 62
7
 10
60.24568022081566
 20
38.99754255335029
 30
0
 11
60.59568022081569
 21
39.34783982576847
 31
0
  0
LINE
  8
1
 62
7
 10
60.59568022081569
 20
39.34783982576847
 30
0
 11
60.24568022081566
 21
39.69724528093192
 31
0
  0
LINE
  8
1
 62
7
 10
58.47435987725591
 20
39.34783982576847
 30
0
 11
58.82435987725593
 21
38.99754255335029
 31
0
  0
LINE
  8
1
 62
7
 10
58.82435987725596
 20
39.69724528093192
 30
0
 11
58.47435987725591
 21
39.34783982576847
 31
0
  0
LINE
  8
1
 62
7
 10
9.099658592718177
 20
26.7978398257685
 30
0
 11
9.799658592718178
 21
26.7978398257685
 31
0
  0
LINE
  8
1
 62
7
 10
9.799658592718178
 20
26.7978398257685
 30
0
 11
9.799658592718178
 21
30.2978398257685
 31
0
  0
LINE
  8
1
 62
7
 10
9.099658592718177
 20
30.2978398257685
 30
0
 11
9.799658592718178
 21
30.2978398257685
 31
0
  0
LINE
  8
1
 62
7
 10
8.799658592718179
 20
27.0978398257685
 30
0
 11
8.799658592718179
 21
29.9978398257685
 31
0
  0
LINE
  8
1
 62
7
 10
9.099658592718177
 20
26.7978398257685
 30
0
 11
9.099658592718177
 21
30.2978398257685
 31
0
  0
LINE
  8
1
 62
7
 10
8.799658592718179
 20
29.9978398257685
 30
0
 11
9.099658592718177
 21
30.2978398257685
 31
0
  0
LINE
  8
1
 62
7
 10
8.799658592718179
 20
27.0978398257685
 30
0
 11
9.099658592718177
 21
26.7978398257685
 31
0
  0
LINE
  8
1
 62
7
 10
9.799658592718178
 20
39.89783982576846
 30
0
 11
9.799658592718178
 21
43.39783982576846
 31
0
  0
LINE
  8
1
 62
7
 10
9.099658592718177
 20
43.39783982576846
 30
0
 11
9.799658592718178
 21
43.39783982576846
 31
0
  0
LINE
  8
1
 62
7
 10
8.799658592718179
 20
40.19783982576845
 30
0
 11
8.799658592718179
 21
43.09783982576847
 31
0
  0
LINE
  8
1
 62
7
 10
9.099658592718177
 20
39.89783982576846
 30
0
 11
9.799658592718178
 21
39.89783982576846
 31
0
  0
LINE
  8
1
 62
7
 10
9.099658592718177
 20
39.89783982576846
 30
0
 11
9.099658592718177
 21
43.39783982576846
 31
0
  0
LINE
  8
1
 62
7
 10
8.799658592718179
 20
43.09783982576847
 30
0
 11
9.099658592718177
 21
43.39783982576846
 31
0
  0
LINE
  8
1
 62
7
 10
8.799658592718179
 20
40.19783982576845
 30
0
 11
9.099658592718177
 21
39.89783982576846
 31
0
  0
LINE
  8
1
 62
7
 10
39.79965859271816
 20
43.39783982576846
 30
0
 11
39.79965859271816
 21
39.89783982576846
 31
0
  0
LINE
  8
1
 62
7
 10
61.28502004903579
 20
43.34724528093194
 30
0
 11
60.13502004903579
 21
43.34724528093194
 31
0
  0
LINE
  8
1
 62
3
 10
60.13502004903579
 20
42.79724528093194
 30
0
 11
57.53502004903579
 21
42.79724528093194
 31
0
  0
LINE
  8
1
 62
3
 10
60.13502004903579
 20
40.79724528093194
 30
0
 11
57.53502004903579
 21
40.79724528093194
 31
0
  0
LINE
  8
1
 62
7
 10
60.13502004903579
 20
40.97224528093194
 30
0
 11
57.53502004903579
 21
40.97224528093194
 31
0
  0
LINE
  8
1
 62
7
 10
60.13502004903579
 20
42.62224528093194
 30
0
 11
57.53502004903579
 21
42.62224528093194
 31
0
  0
LINE
  8
1
 62
7
 10
57.53502004903579
 20
40.19724528093192
 30
0
 11
57.53502004903579
 21
43.09724528093194
 31
0
  0
LINE
  8
1
 62
7
 10
60.13502004903579
 20
40.24724528093195
 30
0
 11
61.53502004903579
 21
40.24724528093195
 31
0
  0
LINE
  8
1
 62
7
 10
60.13502004903579
 20
43.34724528093194
 30
0
 11
60.13502004903579
 21
40.24724528093195
 31
0
  0
LINE
  8
1
 62
3
  6
CENTER
 10
61.9350200490358
 20
41.79724528093194
 30
0
 11
57.13502004903582
 21
41.79724528093194
 31
0
  0
LINE
  8
1
 62
7
 10
61.03502004903579
 20
43.59724528093194
 30
0
 11
58.03502004903579
 21
43.59724528093194
 31
0
  0
LINE
  8
1
 62
7
 10
61.53502004903579
 20
43.09724528093194
 30
0
 11
61.53502004903579
 21
40.19724528093192
 31
0
  0
LINE
  8
1
 62
7
 10
61.53502004903579
 20
40.19724528093192
 30
0
 11
61.03502004903579
 21
39.69724528093192
 31
0
  0
LINE
  8
1
 62
7
 10
57.53502004903579
 20
40.19724528093192
 30
0
 11
58.03502004903579
 21
39.69724528093192
 31
0
  0
LINE
  8
1
 62
7
 10
57.53502004903579
 20
43.09724528093194
 30
0
 11
58.03502004903579
 21
43.59724528093194
 31
0
  0
LINE
  8
1
 62
7
 10
61.03502004903579
 20
43.59724528093194
 30
0
 11
61.53502004903579
 21
43.09724528093194
 31
0
  0
LINE
  8
1
 62
7
 10
59.83502004903586
 20
40.10790545271169
 30
0
 11
60.24568022081566
 21
39.69724528093192
 31
0
  0
LINE
  8
1
 62
7
 10
61.03502004903579
 20
39.69724528093192
 30
0
 11
60.24568022081566
 21
39.69724528093192
 31
0
  0
LINE
  8
1
 62
7
 10
59.23502004903584
 20
40.1079054527118
 30
0
 11
58.82435987725596
 21
39.69724528093192
 31
0
  0
LINE
  8
1
 62
7
 10
58.03502004903579
 20
39.69724528093192
 30
0
 11
58.82435987725596
 21
39.69724528093192
 31
0
  0
LINE
  8
1
 62
3
  6
CENTER
 10
17.19965859271817
 20
41.79783982576846
 30
0
 11
12.39965859271818
 21
41.79783982576846
 31
0
  0
LINE
  8
1
 62
3
  6
CENTER
 10
14.79965859271817
 20
44.19783982576845
 30
0
 11
14.79965859271817
 21
39.39783982576846
 31
0
  0
LINE
  8
1
 62
3
  6
CENTER
 10
27.19965859271817
 20
41.79783982576846
 30
0
 11
22.39965859271818
 21
41.79783982576846
 31
0
  0
LINE
  8
1
 62
3
  6
CENTER
 10
24.79965859271817
 20
44.19783982576845
 30
0
 11
24.79965859271817
 21
39.39783982576846
 31
0
  0
LINE
  8
1
 62
3
  6
CENTER
 10
37.19965859271817
 20
41.79783982576846
 30
0
 11
32.39965859271818
 21
41.79783982576846
 31
0
  0
LINE
  8
1
 62
3
  6
CENTER
 10
34.79965859271817
 20
44.19783982576845
 30
0
 11
34.79965859271817
 21
39.39783982576846
 31
0
  0
LINE
  8
1
 62
3
  6
CENTER
 10
12.39965859271818
 20
28.39783982576848
 30
0
 11
17.19965859271817
 21
28.39783982576848
 31
0
  0
LINE
  8
1
 62
3
  6
CENTER
 10
14.79965859271817
 20
30.79783982576848
 30
0
 11
14.79965859271817
 21
25.99783982576848
 31
0
  0
LINE
  8
1
 62
3
  6
CENTER
 10
22.39965859271818
 20
28.39783982576848
 30
0
 11
27.19965859271817
 21
28.39783982576848
 31
0
  0
LINE
  8
1
 62
3
  6
CENTER
 10
24.79965859271817
 20
30.79783982576848
 30
0
 11
24.79965859271817
 21
25.99783982576848
 31
0
  0
LINE
  8
1
 62
3
  6
CENTER
 10
32.39965859271818
 20
28.39783982576848
 30
0
 11
37.19965859271817
 21
28.39783982576848
 31
0
  0
LINE
  8
1
 62
3
  6
CENTER
 10
34.79965859271817
 20
30.79783982576848
 30
0
 11
34.79965859271817
 21
25.99783982576848
 31
0
  0
LINE
  8
1
 62
3
  6
CENTER
 10
12.39965859271818
 20
35.09783982576847
 30
0
 11
17.19965859271817
 21
35.09783982576847
 31
0
  0
LINE
  8
1
 62
3
  6
CENTER
 10
14.79965859271817
 20
37.49783982576847
 30
0
 11
14.79965859271817
 21
32.69783982576847
 31
0
  0
LINE
  8
1
 62
7
 10
9.799658592718277
 20
31.34783982576851
 30
0
 11
9.799658592718178
 21
38.84783982576847
 31
0
  0
LINE
  8
1
 62
7
 10
9.099658592718184
 20
38.84783982576847
 30
0
 11
9.799658592718178
 21
38.84783982576847
 31
0
  0
LINE
  8
1
 62
7
 10
8.799658592718179
 20
35.64783982576846
 30
0
 11
8.799658592718233
 21
38.54783982576847
 31
0
  0
LINE
  8
1
 62
7
 10
9.099658592718184
 20
31.3478398257685
 30
0
 11
9.799658592718277
 21
31.34783982576851
 31
0
  0
LINE
  8
1
 62
7
 10
8.799658592718179
 20
31.6478398257685
 30
0
 11
8.799658592718179
 21
34.54783982576849
 31
0
  0
LINE
  8
1
 62
7
 10
9.099658592718233
 20
35.34783982576847
 30
0
 11
9.099658592718184
 21
38.84783982576847
 31
0
  0
LINE
  8
1
 62
7
 10
9.799658592718178
 20
35.34783982576847
 30
0
 11
9.099658592718233
 21
35.34783982576847
 31
0
  0
LINE
  8
1
 62
7
 10
9.099658592718184
 20
31.3478398257685
 30
0
 11
9.099658592718184
 21
34.8478398257685
 31
0
  0
LINE
  8
1
 62
7
 10
9.799658592718178
 20
34.8478398257685
 30
0
 11
9.099658592718184
 21
34.8478398257685
 31
0
  0
LINE
  8
1
 62
7
 10
8.799658592718233
 20
38.54783982576847
 30
0
 11
9.099658592718184
 21
38.84783982576847
 31
0
  0
LINE
  8
1
 62
7
 10
8.799658592718179
 20
35.64783982576846
 30
0
 11
9.099658592718233
 21
35.34783982576847
 31
0
  0
LINE
  8
1
 62
7
 10
8.799658592718179
 20
34.54783982576849
 30
0
 11
9.099658592718184
 21
34.8478398257685
 31
0
  0
LINE
  8
1
 62
7
 10
8.799658592718179
 20
31.6478398257685
 30
0
 11
9.099658592718184
 21
31.3478398257685
 31
0
  0
LINE
  8
1
 62
7
 10
39.79965859271817
 20
38.84783982576847
 30
0
 11
39.79965859271807
 21
31.34783982576851
 31
0
  0
LINE
  8
1
 62
3
  6
CENTER
 10
31.39965859271818
 20
35.09783982576847
 30
0
 11
30.61690258958485
 21
35.09783982576847
 31
0
  0
LINE
  8
1
 62
3
  6
CENTER
 10
29.79965859271817
 20
36.69783982576847
 30
0
 11
29.79965859271817
 21
36.09783982576847
 31
0
  0
LINE
  8
1
 62
3
  6
CENTER
 10
19.79965859271817
 20
36.69783982576847
 30
0
 11
19.79965859271817
 21
33.49783982576847
 31
0
  0
LINE
  8
1
 62
3
  6
CENTER
 10
21.39965859271818
 20
35.09783982576847
 30
0
 11
18.19965859271817
 21
35.09783982576847
 31
0
  0
LINE
  8
1
 62
7
 10
62.03502004903579
 20
33.79754255335024
 30
0
 11
62.03502004903579
 21
31.69754255335022
 31
0
  0
LINE
  8
1
 62
7
 10
39.79965859271816
 20
26.7978398257685
 30
0
 11
40.49965859271816
 21
26.7978398257685
 31
0
  0
LINE
  8
1
 62
7
 10
39.79965859271816
 20
30.2978398257685
 30
0
 11
39.79965859271816
 21
26.7978398257685
 31
0
  0
LINE
  8
1
 62
7
 10
60.13502004903579
 20
26.8478398257685
 30
0
 11
61.28502004903579
 21
26.8478398257685
 31
0
  0
LINE
  8
1
 62
3
 10
57.53502004903579
 20
27.3978398257685
 30
0
 11
60.13502004903579
 21
27.3978398257685
 31
0
  0
LINE
  8
1
 62
3
 10
57.53502004903579
 20
29.3978398257685
 30
0
 11
60.13502004903579
 21
29.3978398257685
 31
0
  0
LINE
  8
1
 62
7
 10
57.53502004903579
 20
29.2228398257685
 30
0
 11
60.13502004903579
 21
29.2228398257685
 31
0
  0
LINE
  8
1
 62
7
 10
57.53502004903579
 20
27.5728398257685
 30
0
 11
60.13502004903579
 21
27.5728398257685
 31
0
  0
LINE
  8
1
 62
7
 10
57.53502004903579
 20
27.0978398257685
 30
0
 11
57.53502004903579
 21
29.99783982576852
 31
0
  0
LINE
  8
1
 62
7
 10
61.53502004903579
 20
29.94783982576849
 30
0
 11
60.13502004903579
 21
29.94783982576849
 31
0
  0
LINE
  8
1
 62
7
 10
60.13502004903579
 20
29.94783982576849
 30
0
 11
60.13502004903579
 21
26.8478398257685
 31
0
  0
LINE
  8
1
 62
3
  6
CENTER
 10
57.13502004903582
 20
28.3978398257685
 30
0
 11
61.9350200490358
 21
28.3978398257685
 31
0
  0
LINE
  8
1
 62
7
 10
58.03502004903579
 20
26.5978398257685
 30
0
 11
61.03502004903579
 21
26.5978398257685
 31
0
  0
LINE
  8
1
 62
7
 10
61.53502004903579
 20
29.99783982576852
 30
0
 11
61.53502004903579
 21
27.0978398257685
 31
0
  0
LINE
  8
1
 62
7
 10
61.03502004903579
 20
30.49783982576852
 30
0
 11
61.53502004903579
 21
29.99783982576852
 31
0
  0
LINE
  8
1
 62
7
 10
58.03502004903579
 20
30.49783982576852
 30
0
 11
57.53502004903579
 21
29.99783982576852
 31
0
  0
LINE
  8
1
 62
7
 10
58.03502004903579
 20
26.5978398257685
 30
0
 11
57.53502004903579
 21
27.0978398257685
 31
0
  0
LINE
  8
1
 62
7
 10
61.53502004903579
 20
27.0978398257685
 30
0
 11
61.03502004903579
 21
26.5978398257685
 31
0
  0
LINE
  8
1
 62
7
 10
60.24568022081566
 20
30.49783982576852
 30
0
 11
59.83502004903586
 21
30.08717965398875
 31
0
  0
LINE
  8
1
 62
7
 10
60.24568022081566
 20
30.49783982576852
 30
0
 11
61.03502004903579
 21
30.49783982576852
 31
0
  0
LINE
  8
1
 62
7
 10
58.82435987725596
 20
30.49783982576852
 30
0
 11
59.23502004903584
 21
30.08717965398864
 31
0
  0
LINE
  8
1
 62
7
 10
58.82435987725596
 20
30.49783982576852
 30
0
 11
58.03502004903579
 21
30.49783982576852
 31
0
  0
LINE
  8
1
 62
4
  6
CENTER
 10
58.09090985720555
 20
30.84754255335027
 30
0
 11
60.8865600742094
 21
30.84754255335027
 31
0
  0
LINE
  8
1
 62
7
 10
49.62082494818346
 20
31.5647033995903
 30
0
 11
48.90396137436161
 21
30.8478398257685
 31
0
  0
LINE
  8
1
 62
7
 10
50.5242650379905
 20
38.8468231458376
 30
0
 11
51.02528171792138
 21
39.34783982576847
 31
0
  0
LINE
  8
1
 62
7
 10
50.41605349345576
 20
30.23861160130299
 30
0
 11
51.02528171792138
 21
30.8478398257685
 31
0
  0
LINE
  8
1
 62
7
 10
49.51318959882717
 20
39.95706805023399
 30
0
 11
48.90396137436161
 21
39.34783982576847
 31
0
  0
LINE
  8
1
 62
7
 10
51.02528171792138
 20
39.34783982576847
 30
0
 11
50.41605349345582
 21
39.95706805023399
 31
0
  0
LINE
  8
1
 62
7
 10
48.90396137436161
 20
39.34783982576847
 30
0
 11
49.62082494818346
 21
38.63097625194666
 31
0
  0
LINE
  8
1
 62
7
 10
49.25396137436163
 20
38.9978398257685
 30
0
 11
48.96462154614149
 21
38.9978398257685
 31
0
  0
LINE
  8
1
 62
7
 10
50.67528171792136
 20
38.9978398257685
 30
0
 11
51.96462154614149
 21
38.9978398257685
 31
0
  0
LINE
  8
1
 62
7
 10
9.799658592718233
 20
39.99783982576844
 30
0
 11
10.09965859271819
 21
39.69783982576846
 31
0
  0
LINE
  8
1
 62
7
 10
10.09965859271819
 20
43.59783982576847
 30
0
 11
9.799658592718233
 21
43.29783982576848
 31
0
  0
LINE
  8
1
 62
7
 10
39.49965859271809
 20
43.59783982576847
 30
0
 11
39.79965859271816
 21
43.29783982576848
 31
0
  0
LINE
  8
1
 62
7
 10
39.79965859271816
 20
39.99783982576844
 30
0
 11
39.49965859271809
 21
39.69783982576846
 31
0
  0
LINE
  8
1
 62
7
 10
47.96462154614149
 20
43.09783982576847
 30
0
 11
47.96462154614149
 21
40.19783982576846
 31
0
  0
LINE
  8
1
 62
7
 10
51.46462154614149
 20
43.59783982576847
 30
0
 11
48.46462154614149
 21
43.59783982576847
 31
0
  0
LINE
  8
1
 62
7
 10
51.96462154614149
 20
43.09783982576847
 30
0
 11
51.96462154614149
 21
40.19783982576846
 31
0
  0
LINE
  8
1
 62
7
 10
48.46462154614149
 20
39.69783982576846
 30
0
 11
49.25396137436174
 21
39.69783982576846
 31
0
  0
LINE
  8
1
 62
7
 10
51.46462154614149
 20
39.69783982576846
 30
0
 11
50.67528171792124
 21
39.69783982576846
 31
0
  0
LINE
  8
1
 62
7
 10
51.96462154614149
 20
40.19783982576846
 30
0
 11
51.46462154614149
 21
39.69783982576846
 31
0
  0
LINE
  8
1
 62
7
 10
47.96462154614149
 20
40.19783982576846
 30
0
 11
48.46462154614149
 21
39.69783982576846
 31
0
  0
LINE
  8
1
 62
7
 10
47.96462154614149
 20
43.09783982576847
 30
0
 11
48.46462154614149
 21
43.59783982576847
 31
0
  0
LINE
  8
1
 62
7
 10
51.46462154614149
 20
43.59783982576847
 30
0
 11
51.96462154614149
 21
43.09783982576847
 31
0
  0
LINE
  8
1
 62
7
 10
10.54965859271823
 20
39.69783982576846
 30
0
 11
10.54965859271823
 21
39.99783982576844
 31
0
  0
LINE
  8
1
 62
7
 10
10.54965859271823
 20
43.59783982576847
 30
0
 11
10.54965859271823
 21
43.29783982576848
 31
0
  0
LINE
  8
1
 62
7
 10
39.04965859271809
 20
39.69783982576846
 30
0
 11
39.04965859271816
 21
39.99783982576844
 31
0
  0
LINE
  8
1
 62
7
 10
39.04965859271816
 20
43.29783982576848
 30
0
 11
39.04965859271809
 21
43.59783982576847
 31
0
  0
LINE
  8
1
 62
7
 10
48.96462154614149
 20
38.9978398257685
 30
0
 11
48.46462154614149
 21
38.4978398257685
 31
0
  0
LINE
  8
1
 62
7
 10
51.96462154614149
 20
38.9978398257685
 30
0
 11
52.46462154614149
 21
38.4978398257685
 31
0
  0
LINE
  8
1
 62
7
 10
52.46462154614149
 20
38.4978398257685
 30
0
 11
52.46462154614149
 21
35.59783982576847
 31
0
  0
LINE
  8
1
 62
7
 10
48.46462154614149
 20
38.4978398257685
 30
0
 11
48.46462154614149
 21
35.59783982576847
 31
0
  0
LINE
  8
1
 62
7
 10
39.4996585927181
 20
38.9978398257685
 30
0
 11
39.79965859271817
 21
38.69783982576849
 31
0
  0
LINE
  8
1
 62
7
 10
10.09965859271819
 20
38.9978398257685
 30
0
 11
9.799658592718233
 21
38.69783982576849
 31
0
  0
LINE
  8
1
 62
7
 10
9.799658592718233
 20
31.49783982576847
 30
0
 11
10.09965859271819
 21
31.19783982576846
 31
0
  0
LINE
  8
1
 62
7
 10
39.79965859271817
 20
31.49783982576847
 30
0
 11
39.4996585927181
 21
31.19783982576846
 31
0
  0
LINE
  8
1
 62
7
 10
48.46462154614149
 20
34.5978398257685
 30
0
 11
48.46462154614149
 21
31.69783982576846
 31
0
  0
LINE
  8
1
 62
7
 10
52.46462154614149
 20
34.5978398257685
 30
0
 11
52.46462154614149
 21
31.69783982576846
 31
0
  0
LINE
  8
1
 62
7
 10
52.46462154614149
 20
31.69783982576846
 30
0
 11
51.96462154614149
 21
31.19783982576846
 31
0
  0
LINE
  8
1
 62
7
 10
48.46462154614149
 20
31.69783982576846
 30
0
 11
48.96462154614149
 21
31.19783982576846
 31
0
  0
LINE
  8
1
 62
7
 10
51.96462154614149
 20
31.19783982576846
 30
0
 11
50.67528171792136
 21
31.19783982576846
 31
0
  0
LINE
  8
1
 62
7
 10
48.96462154614149
 20
31.19783982576846
 30
0
 11
49.25396137436163
 21
31.19783982576846
 31
0
  0
LINE
  8
1
 62
7
 10
51.02528171792138
 20
30.8478398257685
 30
0
 11
50.5242650379905
 21
31.34885650569936
 31
0
  0
LINE
  8
1
 62
7
 10
39.04965859271809
 20
26.5978398257685
 30
0
 11
39.04965859271816
 21
26.89783982576848
 31
0
  0
LINE
  8
1
 62
7
 10
39.04965859271816
 20
30.19783982576852
 30
0
 11
39.04965859271809
 21
30.4978398257685
 31
0
  0
LINE
  8
1
 62
7
 10
10.54965859271823
 20
26.89783982576848
 30
0
 11
10.54965859271823
 21
26.5978398257685
 31
0
  0
LINE
  8
1
 62
7
 10
10.54965859271823
 20
30.19783982576852
 30
0
 11
10.54965859271823
 21
30.4978398257685
 31
0
  0
LINE
  8
1
 62
7
 10
51.96462154614149
 20
27.0978398257685
 30
0
 11
51.46462154614149
 21
26.5978398257685
 31
0
  0
LINE
  8
1
 62
7
 10
48.46462154614149
 20
26.5978398257685
 30
0
 11
47.96462154614149
 21
27.0978398257685
 31
0
  0
LINE
  8
1
 62
7
 10
48.46462154614149
 20
30.4978398257685
 30
0
 11
47.96462154614149
 21
29.9978398257685
 31
0
  0
LINE
  8
1
 62
7
 10
51.46462154614149
 20
30.4978398257685
 30
0
 11
51.96462154614149
 21
29.9978398257685
 31
0
  0
LINE
  8
1
 62
7
 10
50.67528171792124
 20
30.4978398257685
 30
0
 11
51.46462154614149
 21
30.4978398257685
 31
0
  0
LINE
  8
1
 62
7
 10
49.25396137436174
 20
30.4978398257685
 30
0
 11
48.46462154614149
 21
30.4978398257685
 31
0
  0
LINE
  8
1
 62
7
 10
51.96462154614149
 20
29.9978398257685
 30
0
 11
51.96462154614149
 21
27.0978398257685
 31
0
  0
LINE
  8
1
 62
7
 10
48.46462154614149
 20
26.5978398257685
 30
0
 11
51.46462154614149
 21
26.5978398257685
 31
0
  0
LINE
  8
1
 62
7
 10
47.96462154614149
 20
29.9978398257685
 30
0
 11
47.96462154614149
 21
27.0978398257685
 31
0
  0
LINE
  8
1
 62
7
 10
39.49965859271809
 20
30.4978398257685
 30
0
 11
39.79965859271816
 21
30.19783982576852
 31
0
  0
LINE
  8
1
 62
7
 10
39.79965859271816
 20
26.89783982576848
 30
0
 11
39.49965859271809
 21
26.5978398257685
 31
0
  0
LINE
  8
1
 62
7
 10
9.799658592718233
 20
26.89783982576848
 30
0
 11
10.09965859271819
 21
26.5978398257685
 31
0
  0
LINE
  8
1
 62
7
 10
10.09965859271819
 20
30.4978398257685
 30
0
 11
9.799658592718233
 21
30.19783982576852
 31
0
  0
LINE
  8
1
 62
7
 10
48.90396137436161
 20
30.8478398257685
 30
0
 11
49.51318959882717
 21
30.23861160130297
 31
0
  0
LINE
  8
1
 62
7
 10
48.46462154614149
 20
35.59783982576847
 30
0
 11
48.46462154614149
 21
34.5978398257685
 31
0
  0
LINE
  8
1
 62
7
 10
52.46462154614149
 20
34.5978398257685
 30
0
 11
52.46462154614149
 21
35.59783982576847
 31
0
  0
LINE
  8
1
 62
4
  6
CENTER
 10
58.15871997666764
 20
39.34754255335025
 30
0
 11
60.87880724413179
 21
39.34754255335025
 31
0
  0
LINE
  8
1
 62
4
  6
CENTER
 10
59.53502004903579
 20
44.0399712891986
 30
0
 11
59.53502004903579
 21
29.7871796539887
 31
0
  0
LINE
  8
1
 62
7
 10
62.03502004903579
 20
33.79754255335024
 30
0
 11
62.03502004903579
 21
34.09754255335022
 31
0
  0
LINE
  8
1
 62
7
 10
58.03502004903579
 20
38.39754255335026
 30
0
 11
58.03502004903579
 21
36.64754255335022
 31
0
  0
LINE
  8
1
 62
7
 10
62.03502004903579
 20
38.49754255335029
 30
0
 11
62.03502004903579
 21
37.89754255335026
 31
0
  0
LINE
  8
1
 62
7
 10
61.53502004903579
 20
38.99754255335029
 30
0
 11
62.03502004903579
 21
38.49754255335029
 31
0
  0
LINE
  8
1
 62
7
 10
62.03502004903579
 20
34.59754255335025
 30
0
 11
62.03502004903579
 21
34.29754255335024
 31
0
  0
LINE
  8
1
 62
7
 10
58.03502004903579
 20
34.59754255335025
 30
0
 11
58.03502004903579
 21
33.54754255335023
 31
0
  0
LINE
  8
1
 62
7
 10
62.03502004903579
 20
34.29754255335024
 30
0
 11
62.03502004903579
 21
34.09754255335022
 31
0
  0
LINE
  8
1
 62
7
 10
58.03502004903579
 20
35.59754255335025
 30
0
 11
58.03502004903579
 21
34.59754255335025
 31
0
  0
LINE
  8
1
 62
7
 10
58.03502004903579
 20
31.69754255335022
 30
0
 11
58.53502004903579
 21
31.19754255335022
 31
0
  0
LINE
  8
1
 62
7
 10
58.53502004903579
 20
31.19754255335022
 30
0
 11
58.82435987725593
 21
31.19754255335022
 31
0
  0
LINE
  8
1
 62
7
 10
59.23502004903584
 20
31.60820272513013
 30
0
 11
58.82435987725593
 21
31.19754255335022
 31
0
  0
LINE
  8
1
 62
7
 10
59.83502004903586
 20
31.60820272513002
 30
0
 11
60.24568022081566
 21
31.19754255335022
 31
0
  0
LINE
  8
1
 62
7
 10
61.53502004903579
 20
31.19754255335022
 30
0
 11
60.24568022081566
 21
31.19754255335022
 31
0
  0
LINE
  8
1
 62
7
 10
62.03502004903579
 20
31.69754255335022
 30
0
 11
61.53502004903579
 21
31.19754255335022
 31
0
  0
LINE
  8
1
 62
7
 10
60.24568022081566
 20
38.99754255335029
 30
0
 11
61.53502004903579
 21
38.99754255335029
 31
0
  0
LINE
  8
1
 62
7
 10
60.24568022081566
 20
38.99754255335029
 30
0
 11
59.83502004903586
 21
38.58688238157049
 31
0
  0
LINE
  8
1
 62
7
 10
58.82435987725593
 20
38.99754255335029
 30
0
 11
59.23502004903584
 21
38.58688238157038
 31
0
  0
LINE
  8
1
 62
7
 10
58.82435987725593
 20
38.99754255335029
 30
0
 11
58.53502004903579
 21
38.99754255335029
 31
0
  0
LINE
  8
1
 62
7
 10
58.53502004903579
 20
38.99754255335029
 30
0
 11
58.03502004903579
 21
38.49754255335029
 31
0
  0
LINE
  8
1
 62
7
 10
58.03502004903579
 20
38.49754255335029
 30
0
 11
58.03502004903579
 21
38.39754255335026
 31
0
  0
LINE
  8
1
 62
7
 10
39.79965859271816
 20
43.39783982576846
 30
0
 11
40.49965859271816
 21
43.39783982576846
 31
0
  0
LINE
  8
1
 62
7
 10
40.79965859271816
 20
43.09783982576847
 30
0
 11
40.79965859271816
 21
40.19783982576845
 31
0
  0
LINE
  8
1
 62
7
 10
39.79965859271816
 20
39.89783982576846
 30
0
 11
40.49965859271816
 21
39.89783982576846
 31
0
  0
LINE
  8
1
 62
7
 10
39.79965859271817
 20
38.84783982576847
 30
0
 11
40.49965859271816
 21
38.84783982576847
 31
0
  0
LINE
  8
1
 62
7
 10
40.79965859271817
 20
38.54783982576847
 30
0
 11
40.79965859271817
 21
35.64783982576846
 31
0
  0
LINE
  8
1
 62
7
 10
39.79965859271807
 20
31.34783982576851
 30
0
 11
40.49965859271816
 21
31.3478398257685
 31
0
  0
LINE
  8
1
 62
7
 10
40.79965859271817
 20
34.54783982576849
 30
0
 11
40.79965859271817
 21
31.6478398257685
 31
0
  0
LINE
  8
1
 62
7
 10
39.79965859271816
 20
30.2978398257685
 30
0
 11
40.49965859271816
 21
30.2978398257685
 31
0
  0
LINE
  8
1
 62
7
 10
40.79965859271816
 20
29.9978398257685
 30
0
 11
40.79965859271816
 21
27.0978398257685
 31
0
  0
LINE
  8
1
 62
7
 10
40.49965859271816
 20
43.39783982576846
 30
0
 11
40.49965859271816
 21
39.89783982576846
 31
0
  0
LINE
  8
1
 62
7
 10
40.49965859271816
 20
38.84783982576847
 30
0
 11
40.49965859271816
 21
35.34783982576847
 31
0
  0
LINE
  8
1
 62
7
 10
40.49965859271816
 20
35.34783982576847
 30
0
 11
39.79965859271817
 21
35.34783982576847
 31
0
  0
LINE
  8
1
 62
7
 10
40.49965859271816
 20
34.8478398257685
 30
0
 11
40.49965859271816
 21
31.3478398257685
 31
0
  0
LINE
  8
1
 62
7
 10
40.49965859271816
 20
34.8478398257685
 30
0
 11
39.79965859271817
 21
34.8478398257685
 31
0
  0
LINE
  8
1
 62
7
 10
40.49965859271816
 20
30.2978398257685
 30
0
 11
40.49965859271816
 21
26.7978398257685
 31
0
  0
LINE
  8
1
 62
7
 10
40.49965859271816
 20
43.39783982576846
 30
0
 11
40.79965859271816
 21
43.09783982576847
 31
0
  0
LINE
  8
1
 62
7
 10
40.49965859271816
 20
39.89783982576846
 30
0
 11
40.79965859271816
 21
40.19783982576845
 31
0
  0
LINE
  8
1
 62
7
 10
40.49965859271816
 20
38.84783982576847
 30
0
 11
40.79965859271817
 21
38.54783982576847
 31
0
  0
LINE
  8
1
 62
7
 10
40.49965859271816
 20
35.34783982576847
 30
0
 11
40.79965859271817
 21
35.64783982576846
 31
0
  0
LINE
  8
1
 62
7
 10
40.49965859271816
 20
34.8478398257685
 30
0
 11
40.79965859271817
 21
34.54783982576849
 31
0
  0
LINE
  8
1
 62
7
 10
40.49965859271816
 20
31.3478398257685
 30
0
 11
40.79965859271817
 21
31.6478398257685
 31
0
  0
LINE
  8
1
 62
7
 10
40.49965859271816
 20
30.2978398257685
 30
0
 11
40.79965859271816
 21
29.9978398257685
 31
0
  0
LINE
  8
1
 62
7
 10
40.49965859271816
 20
26.7978398257685
 30
0
 11
40.79965859271816
 21
27.0978398257685
 31
0
  0
LINE
  8
1
 62
7
 10
39.49965859271809
 20
43.59783982576847
 30
0
 11
32.1156819256068
 21
43.59783982576847
 31
0
  0
LINE
  8
1
 62
7
 10
10.54965859271823
 20
43.29783982576848
 30
0
 11
31.06278383139426
 21
43.29783982576848
 31
0
  0
LINE
  8
1
 62
7
 10
10.54965859271823
 20
39.99783982576844
 30
0
 11
30.48090479505631
 21
39.99783982576844
 31
0
  0
LINE
  8
1
 62
7
 10
39.49965859271809
 20
39.69783982576846
 30
0
 11
31.42800670084378
 21
39.69783982576846
 31
0
  0
LINE
  8
1
 62
7
 10
10.09965859271819
 20
38.9978398257685
 30
0
 11
30.30457781434787
 21
38.9978398257685
 31
0
  0
LINE
  8
1
 62
7
 10
10.09965859271819
 20
31.19783982576846
 30
0
 11
28.92922736482183
 21
31.19783982576846
 31
0
  0
LINE
  8
1
 62
7
 10
39.49965859271809
 20
30.4978398257685
 30
0
 11
29.80579847832592
 21
30.4978398257685
 31
0
  0
LINE
  8
1
 62
7
 10
10.54965859271823
 20
30.19783982576852
 30
0
 11
28.75290038411338
 21
30.19783982576852
 31
0
  0
LINE
  8
1
 62
7
 10
10.54965859271823
 20
26.89783982576848
 30
0
 11
28.17102134777543
 21
26.89783982576848
 31
0
  0
LINE
  8
1
 62
7
 10
39.49965859271809
 20
26.5978398257685
 30
0
 11
29.1181232535629
 21
26.5978398257685
 31
0
  0
LINE
  8
1
 62
4
  6
CENTER
 10
8.606780007668421
 20
39.34783982576847
 30
0
 11
40.49965859271817
 21
39.34783982576847
 31
0
  0
LINE
  8
1
 62
4
  6
CENTER
 10
8.667817012963752
 20
30.8478398257685
 30
0
 11
40.49965859271816
 21
30.8478398257685
 31
0
  0
LINE
  8
1
 62
3
  6
CENTER
 10
22.39965859271818
 20
35.09783982576847
 30
0
 11
27.19965859271817
 21
35.09783982576847
 31
0
  0
LINE
  8
1
 62
3
  6
CENTER
 10
32.39965859271818
 20
35.09783982576847
 30
0
 11
37.19965859271817
 21
35.09783982576847
 31
0
  0
LINE
  8
1
 62
3
  6
CENTER
 10
34.79965859271817
 20
37.49783982576847
 30
0
 11
34.79965859271817
 21
32.69783982576847
 31
0
  0
LINE
  8
1
 62
3
  6
CENTER
 10
24.79965859271817
 20
37.49783982576847
 30
0
 11
24.79965859271817
 21
32.69783982576847
 31
0
  0
LINE
  8
1
 62
3
 10
59.4350200490358
 20
34.09754255335022
 30
0
 11
62.03502004903579
 21
34.09754255335022
 31
0
  0
LINE
  8
1
 62
7
 10
62.03502004903579
 20
34.09754255335022
 30
0
 11
62.03502004903579
 21
34.29754255335024
 31
0
  0
LINE
  8
1
 62
7
 10
62.03502004903579
 20
34.09754255335022
 30
0
 11
62.03502004903579
 21
33.79754255335024
 31
0
  0
LINE
  8
1
 62
3
 10
59.4350200490358
 20
36.09754255335022
 30
0
 11
62.03502004903579
 21
36.09754255335022
 31
0
  0
LINE
  8
1
 62
7
 10
62.03502004903579
 20
36.09754255335022
 30
0
 11
62.03502004903579
 21
37.89754255335026
 31
0
  0
LINE
  8
1
 62
7
 10
59.4350200490358
 20
34.29754255335023
 30
0
 11
62.03502004903579
 21
34.29754255335024
 31
0
  0
LINE
  8
1
 62
7
 10
62.03502004903579
 20
34.29754255335024
 30
0
 11
62.03502004903579
 21
35.89754255335022
 31
0
  0
LINE
  8
1
 62
7
 10
59.4350200490358
 20
35.89754255335022
 30
0
 11
62.03502004903579
 21
35.89754255335022
 31
0
  0
LINE
  8
1
 62
7
 10
62.03502004903579
 20
35.89754255335022
 30
0
 11
62.03502004903579
 21
36.09754255335022
 31
0
  0
LINE
  8
1
 62
7
 10
58.03502004903579
 20
33.54754255335023
 30
0
 11
59.4350200490358
 21
33.54754255335023
 31
0
  0
LINE
  8
1
 62
7
 10
58.03502004903579
 20
33.54754255335023
 30
0
 11
58.03502004903579
 21
31.69754255335022
 31
0
  0
LINE
  8
1
 62
7
 10
59.4350200490358
 20
33.54754255335023
 30
0
 11
59.4350200490358
 21
36.64754255335022
 31
0
  0
LINE
  8
1
 62
7
 10
59.4350200490358
 20
36.64754255335022
 30
0
 11
58.03502004903579
 21
36.64754255335022
 31
0
  0
LINE
  8
1
 62
7
 10
58.03502004903579
 20
36.64754255335022
 30
0
 11
58.03502004903579
 21
35.59754255335025
 31
0
  0
LINE
  8
1
 62
3
  6
DASHDOT
 10
57.53290483523209
 20
35.09754255335022
 30
0
 11
62.63992295250681
 21
35.09754255335022
 31
0
  0
LINE
  8
1
 62
3
  6
CENTER
 10
29.61690258958485
 20
35.09783982576847
 30
0
 11
28.19965859271817
 21
35.09783982576847
 31
0
  0
ARC
  8
1
 62
7
 10
29.79965859271817
 20
35.09783982576847
 30
0
 40
1.000000000000001
 50
313.5936692567572
 51
26.40633074324262
  0
ARC
  8
1
 62
7
 10
29.79965859271817
 20
35.09783982576847
 30
0
 40
1
 50
90
 51
249.6314325816486
  0
ARC
  8
1
 62
7
 10
12.74738586544544
 20
41.64783982576842
 30
0
 40
2.748182156497121
 50
143.1016724295045
 51
216.8983275704943
  0
ARC
  8
1
 62
7
 10
36.85193131999095
 20
41.64783982576842
 30
0
 40
2.748182156497075
 50
323.1016724295057
 51
36.89832757049554
  0
ARC
  8
1
 62
7
 10
36.85193131999095
 20
28.54783982576854
 30
0
 40
2.748182156497122
 50
323.1016724295043
 51
36.89832757049423
  0
ARC
  8
1
 62
7
 10
12.74738586544544
 20
28.54783982576854
 30
0
 40
2.748182156497073
 50
143.1016724295058
 51
216.8983275704956
  0
CIRCLE
  8
1
 62
7
  6
DASHED
 10
14.79965859271817
 20
41.79783982576846
 30
0
 40
1.5
  0
CIRCLE
  8
1
 62
3
 10
14.79965859271817
 20
41.79783982576846
 30
0
 40
1
  0
CIRCLE
  8
1
 62
7
 10
14.79965859271817
 20
41.79783982576846
 30
0
 40
0.8000000000000611
  0
CIRCLE
  8
1
 62
7
  6
DASHED
 10
24.79965859271817
 20
41.79783982576846
 30
0
 40
1.5
  0
CIRCLE
  8
1
 62
3
 10
24.79965859271817
 20
41.79783982576846
 30
0
 40
1
  0
CIRCLE
  8
1
 62
7
 10
24.79965859271817
 20
41.79783982576846
 30
0
 40
0.8000000000000611
  0
CIRCLE
  8
1
 62
7
  6
DASHED
 10
34.79965859271817
 20
41.79783982576846
 30
0
 40
1.5
  0
CIRCLE
  8
1
 62
3
 10
34.79965859271817
 20
41.79783982576846
 30
0
 40
1
  0
CIRCLE
  8
1
 62
7
 10
34.79965859271817
 20
41.79783982576846
 30
0
 40
0.800000000000054
  0
CIRCLE
  8
1
 62
7
  6
DASHED
 10
14.79965859271817
 20
28.39783982576848
 30
0
 40
1.5
  0
CIRCLE
  8
1
 62
3
 10
14.79965859271817
 20
28.39783982576848
 30
0
 40
1
  0
CIRCLE
  8
1
 62
7
 10
14.79965859271817
 20
28.39783982576848
 30
0
 40
0.8000000000000611
  0
CIRCLE
  8
1
 62
7
  6
DASHED
 10
24.79965859271817
 20
28.39783982576848
 30
0
 40
1.5
  0
CIRCLE
  8
1
 62
3
 10
24.79965859271817
 20
28.39783982576848
 30
0
 40
1
  0
CIRCLE
  8
1
 62
7
 10
24.79965859271817
 20
28.39783982576848
 30
0
 40
0.8000000000000611
  0
CIRCLE
  8
1
 62
7
  6
DASHED
 10
34.79965859271817
 20
28.39783982576848
 30
0
 40
1.5
  0
CIRCLE
  8
1
 62
7
 10
34.79965859271817
 20
35.09783982576847
 30
0
 40
1.5
  0
CIRCLE
  8
1
 62
7
 10
24.79965859271817
 20
35.09783982576847
 30
0
 40
1.5
  0
CIRCLE
  8
1
 62
3
 10
34.79965859271817
 20
28.39783982576848
 30
0
 40
1
  0
CIRCLE
  8
1
 62
7
 10
34.79965859271817
 20
28.39783982576848
 30
0
 40
0.800000000000054
  0
CIRCLE
  8
1
 62
7
 10
14.79965859271817
 20
35.09783982576847
 30
0
 40
1.5
  0
CIRCLE
  8
1
 62
7
 10
14.79965859271817
 20
35.09783982576847
 30
0
 40
0.8000000000000114
  0
CIRCLE
  8
1
 62
3
 10
14.79965859271817
 20
35.09783982576847
 30
0
 40
1
  0
CIRCLE
  8
1
 62
7
 10
19.79965859271817
 20
35.09783982576847
 30
0
 40
1
  0
CIRCLE
  8
1
 62
3
 10
34.79965859271817
 20
35.09783982576847
 30
0
 40
1
  0
CIRCLE
  8
1
 62
7
 10
34.79965859271817
 20
35.09783982576847
 30
0
 40
0.8000000000000043
  0
CIRCLE
  8
1
 62
7
 10
24.79965859271817
 20
35.09783982576847
 30
0
 40
0.8000000000000611
  0
CIRCLE
  8
1
 62
3
 10
24.79965859271817
 20
35.09783982576847
 30
0
 40
1
  0
TEXT
  8
1
 62
2
 10
42.67403081661931
 20
6.25498114745179
 30
0
 40
3.5
  1
UNION TOOL CO.
 41
0.7200000000000003
  7
COMPLEX
  0
TEXT
  8
1
 62
2
 10
1.845607001883893
 20
51.159006052282
 30
0
 40
3.5
  1
MODEL : GW1
 41
0.7200000000000003
  7
COMPLEX
  0
INSERT
  8
0
  2
TOP__1
 10
-407.4011133108585
 20
-96.26066078317902
 30
0
  0
INSERT
  8
0
  2
TOP__2
 10
-406.9011133108585
 20
-91.71066078317901
 30
0
  0
INSERT
  8
0
  2
TOP__3
 10
-407.4011133108585
 20
-83.16066078317905
 30
0
  0
INSERT
  8
0
  2
TOP__4
 10
-406.9011133108585
 20
-87.71066078317904
 30
0
  0
ENDSEC
  0
EOF
