  0
SECTION
  2
HEADER
  9
$ACADVER
  1
AC1009
  9
$INSBASE
 10
0
 20
0
  9
$EXTMIN
 10
-476.817645391543
 20
-24.3710949349368
  9
$EXTMAX
 10
43.65246359974533
 20
179.2279110217917
  9
$LIMMIN
 10
-476.817645391543
 20
-24.3710949349368
  9
$LIMMAX
 10
43.65246359974533
 20
179.2279110217917
  9
$VIEWCTR
 10
10
 20
10
  9
$VIEWSIZE
 40
10
  9
$SNAPMODE
 70
0
  9
$SNAPUNIT
 10
1
 20
1
  9
$SNAPBASE
 10
0
 20
0
  9
$SNAPANG
 50
0
  9
$SNAPSTYLE
 70
0
  9
$SNAPISOPAIR
 70
0
  9
$GRIDMODE
 70
0
  9
$GRIDUNIT
 10
0
 20
0
  9
$ORTHOMODE
 70
0
  9
$REGENMODE
 70
1
  9
$FILLMODE
 70
1
  9
$QTEXTMODE
 70
0
  9
$DRAGMODE
 70
2
  9
$LTSCALE
 40
1
  9
$OSMODE
 70
0
  9
$ATTMODE
 70
1
  9
$TEXTSIZE
 40
3.5
  9
$TRACEWID
 40
0.5
  9
$TEXTSTYLE
  7
STANDARD
  9
$CLAYER
  8
0
  9
$CELTYPE
  6
BYLAYER
  9
$CECOLOR
 62
256
  9
$DIMSCALE
 40
1
  9
$DIMASZ
 40
0.18
  9
$DIMEXO
 40
0.0625
  9
$DIMDLI
 40
0.38
  9
$DIMRND
 40
0
  9
$DIMDLE
 40
0
  9
$DIMEXE
 40
0.18
  9
$DIMTP
 40
0
  9
$DIMTM
 40
0
  9
$DIMTXT
 40
0.18
  9
$DIMCEN
 40
0.09
  9
$DIMTSZ
 40
0
  9
$DIMTOL
 70
0
  9
$DIMLIM
 70
0
  9
$DIMTIH
 70
1
  9
$DIMTOH
 70
1
  9
$DIMSE1
 70
0
  9
$DIMSE2
 70
0
  9
$DIMTAD
 70
0
  9
$DIMZIN
 70
0
  9
$DIMBLK
  1

  9
$DIMASO
 70
1
  9
$DIMSHO
 70
1
  9
$DIMPOST
  1

  9
$DIMAPOST
  1

  9
$DIMALT
 70
0
  9
$DIMALTD
 70
2
  9
$DIMALTF
 40
25.4
  9
$DIMLFAC
 40
1
  9
$DIMTOFL
 70
0
  9
$DIMTVP
 40
0
  9
$DIMTIX
 70
0
  9
$DIMSOXD
 70
0
  9
$DIMSAH
 70
0
  9
$DIMBLK1
  1

  9
$DIMBLK2
  1

  9
$DIMSTYLE
  2
*UNNAMED
  9
$DIMCLRD
 70
0
  9
$DIMCLRE
 70
0
  9
$DIMCLRT
 70
0
  9
$DIMTFAC
 40
1
  9
$DIMGAP
 40
0.09
  9
$LUNITS
 70
2
  9
$LUPREC
 70
4
  9
$AXISMODE
 70
0
  9
$AXISUNIT
 10
0
 20
0
  9
$SKETCHINC
 40
0.1
  9
$FILLETRAD
 40
2
  9
$AUNITS
 70
0
  9
$AUPREC
 70
0
  9
$MENU
  1
ACAD
  9
$ELEVATION
 40
0
  9
$THICKNESS
 40
0
  9
$VIEWDIR
 10
0
 20
0
 30
1
  9
$LIMCHECK
 70
0
  9
$BLIPMODE
 70
1
  9
$CHAMFERA
 40
0
  9
$CHAMFERB
 40
0
  9
$FASTZOOM
 70
1
  9
$SKPOLY
 70
0
  9
$ANGBASE
 50
0
  9
$ANGDIR
 70
0
  9
$PDMODE
 70
0
  9
$PDSIZE
 40
0
  9
$PLINEWID
 40
0
  9
$COORDS
 70
2
  0
ENDSEC
  0
SECTION
  2
TABLES
  0
TABLE
  2
DIMSTYLE
 70
0
  0
ENDTAB
  0
TABLE
  2
LTYPE
 70
9
  0
LTYPE
  2
CONTINUOUS
 70
64
  3
Solid line
 72
65
 73
0
 40
0
  0
LTYPE
  2
BORDER
 70
64
  3
__ __ . __ __ .
 72
65
 73
6
 40
23.96901817723039
 49
6.84829090778011
 49
-3.424145453890055
 49
6.84829090778011
 49
-3.424145453890055
 49
0
 49
-3.424145453890055
  0
LTYPE
  2
CENTER
 70
64
  3
____ _ ____ _
 72
65
 73
4
 40
27.39316363112044
 49
17.12072726945027
 49
-3.424145453890055
 49
3.424145453890055
 49
-3.424145453890055
  0
LTYPE
  2
DASHDOT
 70
64
  3
__ . __ . __ .
 72
65
 73
4
 40
13.69658181556022
 49
6.84829090778011
 49
-3.424145453890055
 49
0
 49
-3.424145453890055
  0
LTYPE
  2
DASHED
 70
64
  3
__ __ __ __ __
 72
65
 73
2
 40
10.27243636167017
 49
6.84829090778011
 49
-3.424145453890055
  0
LTYPE
  2
DIVIDE
 70
64
  3
__ . . __ . . 
 72
65
 73
6
 40
17.12072726945027
 49
6.84829090778011
 49
-3.424145453890055
 49
0
 49
-3.424145453890055
 49
0
 49
-3.424145453890055
  0
LTYPE
  2
DOT
 70
64
  3
..............
 72
65
 73
4
 40
6.84829090778011
 49
0
 49
-3.424145453890055
 49
0
 49
-3.424145453890055
  0
LTYPE
  2
HIDDEN
 70
64
  3
_ _ _ _ _ _ _
 72
65
 73
2
 40
5.136218180835082
 49
3.424145453890055
 49
-1.712072726945028
  0
LTYPE
  2
PHANTOM
 70
64
  3
_____ _ _ _____ _ _ 
 72
65
 73
6
 40
34.24145453890055
 49
17.12072726945027
 49
-3.424145453890055
 49
3.424145453890055
 49
-3.424145453890055
 49
3.424145453890055
 49
-3.424145453890055
  0
ENDTAB
  0
TABLE
  2
LAYER
 70
3
  0
LAYER
  2
1
 70
0
 62
7
  6
CONTINUOUS
  0
LAYER
  2
0
 70
0
 62
7
  6
CONTINUOUS
  0
ENDTAB
  0
TABLE
  2
STYLE
 70
4
  0
STYLE
  2
STANDARD
 70
0
 40
0
 41
1
 50
0
 71
0
 42
3.5
  3
txt
  4

  0
STYLE
  2
SIMPLEX
 70
0
 40
0
 41
1
 50
0
 71
0
 42
3.5
  3
simplex
  4

  0
STYLE
  2
COMPLEX
 70
0
 40
0
 41
1
 50
0
 71
0
 42
3.5
  3
complex
  4

  0
STYLE
  2
ITALIC
 70
0
 40
0
 41
1
 50
0
 71
0
 42
3.5
  3
italic
  4

  0
ENDTAB
  0
TABLE
  2
VIEW
 70
0
  0
ENDTAB
  0
ENDSEC
  0
SECTION
  2
BLOCKS
  0
ENDSEC
  0
SECTION
  2
ENTITIES
  0
LINE
  8
1
 62
7
 10
-95.20562525950969
 20
92.1134924958275
 30
0
 11
-101.3336938918718
 21
85.98542386346543
 31
0
  0
LINE
  8
1
 62
7
 10
-97.2312752355024
 20
92.98698032269965
 30
0
 11
-101.3195517562481
 21
88.89870380195394
 31
0
  0
LINE
  8
1
 62
7
 10
-97.51554799133795
 20
93.12697163557603
 30
0
 11
-101.3195517562481
 21
89.32296787066586
 31
0
  0
LINE
  8
1
 62
7
 10
-97.60964133289038
 20
93.17429965026085
 30
0
 11
-101.8994507435704
 21
88.88449023958081
 31
0
  0
LINE
  8
1
 62
7
 10
-77.79241973689898
 20
82.98190945269526
 30
0
 11
-71.32408209831478
 21
89.45024709127947
 31
0
  0
LINE
  8
1
 62
7
 10
-71.33822423393849
 20
86.07027667720776
 30
0
 11
-75.42650075468428
 21
81.98200015646196
 31
0
  0
LINE
  8
1
 62
7
 10
-71.33822423393849
 20
85.64601260849584
 30
0
 11
-71.33822423393849
 21
86.07027667720776
 31
0
  0
LINE
  8
1
 62
7
 10
-101.3195517562481
 20
88.89870380195394
 30
0
 11
-101.3195517562481
 21
89.32296787066586
 31
0
  0
LINE
  8
1
 62
7
 10
-101.3336938918718
 20
85.51873338788231
 30
0
 11
-94.8653562532877
 21
91.98707102646635
 31
0
  0
LINE
  8
1
 62
7
 10
-101.3336938918718
 20
85.98542386346543
 30
0
 11
-101.3336938918718
 21
85.51873338788231
 31
0
  0
LINE
  8
1
 62
7
 10
-70.75832524661617
 20
88.8844902395808
 30
0
 11
-75.0481346572962
 21
93.17429965026086
 31
0
  0
LINE
  8
1
 62
7
 10
-101.8994507435704
 20
86.08449023958079
 30
0
 11
-97.60964133289036
 21
81.79468082890075
 31
0
  0
LINE
  8
1
 62
7
 10
-71.32408209831478
 20
88.98355661569627
 30
0
 11
-77.45215073067696
 21
82.85548798333412
 31
0
  0
LINE
  8
1
 62
7
 10
-71.32408209831478
 20
89.45024709127947
 30
0
 11
-71.32408209831478
 21
88.98355661569627
 31
0
  0
LINE
  8
1
 62
7
 10
-71.33822423393849
 20
85.64601260849584
 30
0
 11
-75.14222799884871
 21
81.84200884358562
 31
0
  0
LINE
  8
1
 62
7
 10
-72.78779313537092
 20
87.51984557864019
 30
0
 11
-71.33822423393849
 21
86.07027667720776
 31
0
  0
LINE
  8
1
 62
7
 10
-101.3195517562481
 20
88.89870380195394
 30
0
 11
-99.86998285481568
 21
87.44913490052151
 31
0
  0
LINE
  8
1
 62
7
 10
-70.75832524661617
 20
86.08449023958079
 30
0
 11
-75.04813465729622
 21
81.79468082890074
 31
0
  0
LINE
  8
1
 62
7
 10
9.238250037372008
 20
102.4751540007357
 30
0
 11
-4.338200161409704
 21
88.89870380195394
 31
0
  0
LINE
  8
1
 62
7
 10
25.6431273608999
 20
86.07027667720776
 30
0
 11
12.06667716211819
 21
72.49382647842604
 31
0
  0
LINE
  8
1
 62
7
 10
25.6431273608999
 20
85.64601260849584
 30
0
 11
25.6431273608999
 21
86.07027667720776
 31
0
  0
LINE
  8
1
 62
7
 10
12.06667716211819
 20
72.49382647842604
 30
0
 11
12.49094123083012
 21
72.49382647842604
 31
0
  0
LINE
  8
1
 62
7
 10
-4.338200161409704
 20
88.89870380195394
 30
0
 11
-4.338200161409704
 21
89.32296787066586
 31
0
  0
LINE
  8
1
 62
7
 10
8.813985968660081
 20
102.4751540007357
 30
0
 11
9.238250037372008
 21
102.4751540007357
 31
0
  0
LINE
  8
1
 62
7
 10
-4.35234229703336
 20
85.51873338788231
 30
0
 11
12.61822045144372
 21
102.4892961363594
 31
0
  0
LINE
  8
1
 62
7
 10
-4.352342297033363
 20
85.98542386346543
 30
0
 11
-4.35234229703336
 21
85.51873338788231
 31
0
  0
LINE
  8
1
 62
7
 10
12.1515299758606
 20
102.4892961363594
 30
0
 11
-4.352342297033363
 21
85.98542386346543
 31
0
  0
LINE
  8
1
 62
7
 10
26.22302634822206
 20
88.88449023958088
 30
0
 11
10.65246359974512
 21
104.455052988058
 31
0
  0
LINE
  8
1
 62
7
 10
12.61822045144372
 20
102.4892961363594
 30
0
 11
12.1515299758606
 21
102.4892961363594
 31
0
  0
LINE
  8
1
 62
7
 10
8.686706748046481
 20
72.47968434280232
 30
0
 11
25.65726949652363
 21
89.45024709127947
 31
0
  0
LINE
  8
1
 62
7
 10
-4.918099148731859
 20
86.08449023958082
 30
0
 11
10.65246359974509
 21
70.51392749110367
 31
0
  0
LINE
  8
1
 62
7
 10
9.153397223629602
 20
72.4796843428023
 30
0
 11
8.686706748046481
 21
72.47968434280232
 31
0
  0
LINE
  8
1
 62
7
 10
25.65726949652363
 20
88.98355661569627
 30
0
 11
9.153397223629602
 21
72.4796843428023
 31
0
  0
LINE
  8
1
 62
7
 10
25.65726949652363
 20
89.45024709127947
 30
0
 11
25.65726949652363
 21
88.98355661569627
 31
0
  0
LINE
  8
1
 62
7
 10
12.06667716211819
 20
72.49382647842604
 30
0
 11
10.61710826068577
 21
73.94339537985847
 31
0
  0
LINE
  8
1
 62
7
 10
25.6431273608999
 20
85.64601260849584
 30
0
 11
12.49094123083012
 21
72.49382647842604
 31
0
  0
LINE
  8
1
 62
7
 10
24.19355845946748
 20
87.51984557864019
 30
0
 11
25.6431273608999
 21
86.07027667720776
 31
0
  0
LINE
  8
1
 62
7
 10
-4.338200161409704
 20
88.89870380195394
 30
0
 11
-2.88863125997728
 21
87.44913490052151
 31
0
  0
LINE
  8
1
 62
7
 10
8.813985968660081
 20
102.4751540007357
 30
0
 11
-4.338200161409704
 21
89.32296787066586
 31
0
  0
LINE
  8
1
 62
7
 10
10.68781893880443
 20
101.0255850993032
 30
0
 11
9.238250037372008
 21
102.4751540007357
 31
0
  0
LINE
  8
1
 62
7
 10
10.65246359974512
 20
104.455052988058
 30
0
 11
-4.918099148732093
 21
88.88449023958088
 31
0
  0
LINE
  8
1
 62
3
 10
23.95246359974506
 20
126.4844902395808
 30
0
 11
-16.84753640025513
 21
126.4844902395808
 31
0
  0
LINE
  8
1
 62
7
 10
-16.84753640025513
 20
91.88449023958088
 30
0
 11
-16.84753640025512
 21
139.4844902395808
 31
0
  0
LINE
  8
1
 62
7
 10
23.95246359974506
 20
107.4844902395809
 30
0
 11
23.95246359974506
 21
129.4844902395808
 31
0
  0
LINE
  8
1
 62
3
 10
23.95246359974506
 20
110.4844902395809
 30
0
 11
-16.84753640025513
 21
110.4844902395809
 31
0
  0
LINE
  8
1
 62
7
 10
23.95246359974506
 20
111.2344902395809
 30
0
 11
-16.84753640025513
 21
111.2344902395809
 31
0
  0
LINE
  8
1
 62
7
 10
23.95246359974506
 20
125.7344902395808
 30
0
 11
-16.84753640025513
 21
125.7344902395808
 31
0
  0
LINE
  8
1
 62
7
 10
38.1524635997451
 20
91.88449023958088
 30
0
 11
38.1524635997451
 21
139.4844902395808
 31
0
  0
LINE
  8
1
 62
7
 10
23.95246359974506
 20
107.4844902395809
 30
0
 11
38.1524635997451
 21
107.4844902395809
 31
0
  0
LINE
  8
1
 62
7
 10
38.1524635997451
 20
129.4844902395808
 30
0
 11
23.95246359974506
 21
129.4844902395808
 31
0
  0
LINE
  8
1
 62
3
  6
CENTER
 10
43.6524635997451
 20
118.4844902395809
 30
0
 11
-22.34753640025513
 21
118.4844902395809
 31
0
  0
LINE
  8
1
 62
7
 10
26.22302634822206
 20
88.88449023958088
 30
0
 11
35.1524635997451
 21
88.88449023958088
 31
0
  0
LINE
  8
1
 62
7
 10
35.1524635997451
 20
142.4844902395808
 30
0
 11
-13.84753640025512
 21
142.4844902395808
 31
0
  0
LINE
  8
1
 62
7
 10
-4.918099148732093
 20
88.88449023958088
 30
0
 11
-13.84753640025513
 21
88.88449023958088
 31
0
  0
LINE
  8
1
 62
7
 10
38.1524635997451
 20
91.88449023958088
 30
0
 11
35.1524635997451
 21
88.88449023958088
 31
0
  0
LINE
  8
1
 62
7
 10
35.1524635997451
 20
142.4844902395808
 30
0
 11
38.1524635997451
 21
139.4844902395808
 31
0
  0
LINE
  8
1
 62
7
 10
-16.84753640025512
 20
139.4844902395808
 30
0
 11
-13.84753640025512
 21
142.4844902395808
 31
0
  0
LINE
  8
1
 62
7
 10
-13.84753640025513
 20
88.88449023958088
 30
0
 11
-16.84753640025513
 21
91.88449023958088
 31
0
  0
LINE
  8
1
 62
7
 10
-58.82888799509331
 20
139.4844902395808
 30
0
 11
-79.32888799509327
 21
139.4844902395808
 31
0
  0
LINE
  8
1
 62
7
 10
-110.8288879950933
 20
88.88449023958081
 30
0
 11
-110.8288879950933
 21
110.5095530540477
 31
0
  0
LINE
  8
1
 62
7
 10
-61.8288879950933
 20
142.4844902395808
 30
0
 11
-61.8288879950933
 21
120.4594274251139
 31
0
  0
LINE
  8
1
 62
7
 10
-87.3288879950933
 20
90.50449824598721
 30
0
 11
-87.3288879950933
 21
140.4644822331744
 31
0
  0
LINE
  8
1
 62
7
 10
-85.3288879950933
 20
140.4644822331744
 30
0
 11
-85.3288879950933
 21
90.50449824598721
 31
0
  0
LINE
  8
1
 62
7
 10
-58.8288879950933
 20
91.8844902395808
 30
0
 11
-61.8288879950933
 21
88.88449023958081
 31
0
  0
LINE
  8
1
 62
7
 10
-61.8288879950933
 20
142.4844902395808
 30
0
 11
-58.82888799509331
 21
139.4844902395808
 31
0
  0
LINE
  8
1
 62
7
 10
-113.8288879950933
 20
139.4844902395808
 30
0
 11
-110.8288879950933
 21
142.4844902395808
 31
0
  0
LINE
  8
1
 62
7
 10
-110.8288879950933
 20
88.88449023958081
 30
0
 11
-113.8288879950933
 21
91.88449023958081
 31
0
  0
LINE
  8
1
 62
7
 10
-61.8288879950933
 20
88.88449023958081
 30
0
 11
-70.75832524661617
 21
88.8844902395808
 31
0
  0
LINE
  8
1
 62
7
 10
-58.8288879950933
 20
91.8844902395808
 30
0
 11
-58.82888799509331
 21
139.4844902395808
 31
0
  0
LINE
  8
1
 62
7
 10
-61.8288879950933
 20
142.4844902395808
 30
0
 11
-110.8288879950933
 21
142.4844902395808
 31
0
  0
LINE
  8
1
 62
7
 10
-113.8288879950933
 20
139.4844902395808
 30
0
 11
-113.8288879950933
 21
91.88449023958081
 31
0
  0
LINE
  8
1
 62
7
 10
-110.8288879950933
 20
88.88449023958081
 30
0
 11
-101.8994507435704
 21
88.88449023958081
 31
0
  0
LINE
  8
1
 62
7
 10
-73.75832524661617
 20
91.88449023958081
 30
0
 11
-58.8288879950933
 21
91.8844902395808
 31
0
  0
LINE
  8
1
 62
7
 10
-93.32888799509331
 20
139.4844902395808
 30
0
 11
-113.8288879950933
 21
139.4844902395808
 31
0
  0
LINE
  8
1
 62
7
 10
-61.8288879950933
 20
110.5095530540477
 30
0
 11
-61.8288879950933
 21
88.88449023958081
 31
0
  0
LINE
  8
1
 62
7
 10
-110.8288879950933
 20
120.4594274251139
 30
0
 11
-110.8288879950933
 21
142.4844902395808
 31
0
  0
LINE
  8
1
 62
7
 10
-113.8288879950933
 20
91.88449023958081
 30
0
 11
-98.89945074357043
 21
91.88449023958081
 31
0
  0
LINE
  8
1
 62
7
 10
-79.32888799509327
 20
35.48449023958081
 30
0
 11
-58.82888799509331
 21
35.48449023958081
 31
0
  0
LINE
  8
1
 62
7
 10
-110.8288879950933
 20
64.45942742511392
 30
0
 11
-110.8288879950933
 21
86.08449023958079
 31
0
  0
LINE
  8
1
 62
7
 10
-61.8288879950933
 20
54.5095530540477
 30
0
 11
-61.8288879950933
 21
32.4844902395808
 31
0
  0
LINE
  8
1
 62
7
 10
-87.3288879950933
 20
34.50449824598721
 30
0
 11
-87.3288879950933
 21
84.46448223317439
 31
0
  0
LINE
  8
1
 62
7
 10
-85.3288879950933
 20
84.46448223317439
 30
0
 11
-85.3288879950933
 21
34.50449824598721
 31
0
  0
LINE
  8
1
 62
3
  6
CENTER
 10
-58.82888799509335
 20
87.48449023958079
 30
0
 11
-113.8288879950933
 21
87.48449023958079
 31
0
  0
LINE
  8
1
 62
7
 10
-61.8288879950933
 20
86.08449023958079
 30
0
 11
-58.8288879950933
 21
83.08449023958079
 31
0
  0
LINE
  8
1
 62
7
 10
-58.82888799509331
 20
35.48449023958081
 30
0
 11
-61.8288879950933
 21
32.4844902395808
 31
0
  0
LINE
  8
1
 62
7
 10
-110.8288879950933
 20
32.4844902395808
 30
0
 11
-113.8288879950933
 21
35.4844902395808
 31
0
  0
LINE
  8
1
 62
7
 10
-113.8288879950933
 20
83.08449023958079
 30
0
 11
-110.8288879950933
 21
86.08449023958079
 31
0
  0
LINE
  8
1
 62
7
 10
-70.75832524661617
 20
86.08449023958079
 30
0
 11
-61.8288879950933
 21
86.08449023958079
 31
0
  0
LINE
  8
1
 62
7
 10
-58.82888799509331
 20
35.48449023958081
 30
0
 11
-58.8288879950933
 21
83.08449023958079
 31
0
  0
LINE
  8
1
 62
7
 10
-110.8288879950933
 20
32.4844902395808
 30
0
 11
-61.8288879950933
 21
32.4844902395808
 31
0
  0
LINE
  8
1
 62
7
 10
-113.8288879950933
 20
83.08449023958079
 30
0
 11
-113.8288879950933
 21
35.4844902395808
 31
0
  0
LINE
  8
1
 62
7
 10
-101.8994507435704
 20
86.08449023958079
 30
0
 11
-110.8288879950933
 21
86.08449023958079
 31
0
  0
LINE
  8
1
 62
7
 10
-465.8288879950933
 20
32.48449023958081
 30
0
 11
-468.8288879950932
 21
35.48449023958081
 31
0
  0
LINE
  8
1
 62
7
 10
-468.8288879950932
 20
83.08449023958082
 30
0
 11
-465.8288879950933
 21
86.08449023958082
 31
0
  0
LINE
  8
1
 62
7
 10
-465.8288879950933
 20
88.88449023958081
 30
0
 11
-468.8288879950932
 21
91.88449023958081
 31
0
  0
LINE
  8
1
 62
7
 10
-468.8288879950932
 20
139.4844902395808
 30
0
 11
-465.8288879950933
 21
142.4844902395808
 31
0
  0
LINE
  8
1
 62
3
 10
-2.647536400254857
 20
48.48449023958091
 30
0
 11
38.15246359974533
 21
48.48449023958091
 31
0
  0
LINE
  8
1
 62
7
 10
38.15246359974533
 20
83.08449023958082
 30
0
 11
38.15246359974533
 21
35.48449023958091
 31
0
  0
LINE
  8
1
 62
7
 10
-2.647536400254857
 20
67.48449023958081
 30
0
 11
-2.647536400254857
 21
45.48449023958091
 31
0
  0
LINE
  8
1
 62
3
 10
-2.647536400254857
 20
64.48449023958081
 30
0
 11
38.15246359974533
 21
64.48449023958081
 31
0
  0
LINE
  8
1
 62
7
 10
-2.647536400254857
 20
63.73449023958081
 30
0
 11
38.15246359974533
 21
63.73449023958081
 31
0
  0
LINE
  8
1
 62
7
 10
-2.647536400254857
 20
49.23449023958091
 30
0
 11
38.15246359974533
 21
49.23449023958091
 31
0
  0
LINE
  8
1
 62
7
 10
-16.8475364002549
 20
83.08449023958082
 30
0
 11
-16.8475364002549
 21
35.48449023958091
 31
0
  0
LINE
  8
1
 62
7
 10
-2.647536400254857
 20
67.48449023958081
 30
0
 11
-16.8475364002549
 21
67.48449023958081
 31
0
  0
LINE
  8
1
 62
7
 10
-16.8475364002549
 20
45.48449023958091
 30
0
 11
-2.647536400254857
 21
45.48449023958091
 31
0
  0
LINE
  8
1
 62
3
  6
CENTER
 10
-22.3475364002549
 20
56.48449023958081
 30
0
 11
43.65246359974533
 21
56.48449023958081
 31
0
  0
LINE
  8
1
 62
7
 10
-277.5222007552077
 20
32.48449023958081
 30
0
 11
-171.8288879950933
 21
32.48449023958081
 31
0
  0
LINE
  8
1
 62
7
 10
-276.2638275494661
 20
86.08449023958082
 30
0
 11
-465.8288879950933
 21
86.08449023958082
 31
0
  0
LINE
  8
1
 62
7
 10
-266.727942382002
 20
88.88449023958081
 30
0
 11
-171.8288879950933
 21
88.88449023958081
 31
0
  0
LINE
  8
1
 62
7
 10
-265.4695691762603
 20
142.4844902395808
 30
0
 11
-465.8288879950933
 21
142.4844902395808
 31
0
  0
LINE
  8
1
 62
6
  6
DIVIDE
 10
-253.3762252731998
 20
158.647212133072
 30
0
 11
-279.9324382909513
 21
19.89099911532045
 31
0
  0
LINE
  8
1
 62
6
  6
DIVIDE
 10
-262.3762252731998
 20
158.647212133072
 30
0
 11
-288.9324382909513
 21
19.89099911532045
 31
0
  0
LINE
  8
1
 62
7
 10
-171.8288879950933
 20
142.4844902395808
 30
0
 11
-256.4695691762603
 21
142.4844902395808
 31
0
  0
LINE
  8
1
 62
7
 10
-168.8288879950933
 20
140.4844902395808
 30
0
 11
-168.8288879950933
 21
90.48449023958079
 31
0
  0
LINE
  8
1
 62
7
 10
-465.8288879950933
 20
88.88449023958081
 30
0
 11
-275.727942382002
 21
88.88449023958081
 31
0
  0
LINE
  8
1
 62
7
 10
-171.8288879950933
 20
142.4844902395808
 30
0
 11
-168.8288879950933
 21
139.4844902395808
 31
0
  0
LINE
  8
1
 62
7
 10
-168.8288879950933
 20
91.88449023958081
 30
0
 11
-171.8288879950933
 21
88.88449023958081
 31
0
  0
LINE
  8
1
 62
3
  6
CENTER
 10
-418.8288879950933
 20
105.6844902395808
 30
0
 11
-418.8288879950933
 21
131.2844902395808
 31
0
  0
LINE
  8
1
 62
3
  6
CENTER
 10
-406.0288879950933
 20
118.4844902395808
 30
0
 11
-431.6288879950933
 21
118.4844902395808
 31
0
  0
LINE
  8
1
 62
3
  6
CENTER
 10
-306.0288879950933
 20
118.4844902395808
 30
0
 11
-331.6288879950933
 21
118.4844902395808
 31
0
  0
LINE
  8
1
 62
3
  6
CENTER
 10
-318.8288879950933
 20
105.6844902395808
 30
0
 11
-318.8288879950933
 21
131.2844902395808
 31
0
  0
LINE
  8
1
 62
3
  6
CENTER
 10
-206.0288879950933
 20
118.4844902395808
 30
0
 11
-231.6288879950933
 21
118.4844902395808
 31
0
  0
LINE
  8
1
 62
3
  6
CENTER
 10
-218.8288879950933
 20
105.6844902395808
 30
0
 11
-218.8288879950933
 21
131.2844902395808
 31
0
  0
LINE
  8
1
 62
4
  6
CENTER
 10
-476.817645391543
 20
87.48449023958081
 30
0
 11
-156.8152785276377
 21
87.48449023958081
 31
0
  0
LINE
  8
1
 62
3
  6
CENTER
 10
-218.8288879950933
 20
43.6844902395808
 30
0
 11
-218.8288879950933
 21
69.28449023958081
 31
0
  0
LINE
  8
1
 62
3
  6
CENTER
 10
-206.0288879950933
 20
56.48449023958081
 30
0
 11
-231.6288879950933
 21
56.48449023958081
 31
0
  0
LINE
  8
1
 62
3
  6
CENTER
 10
-318.8288879950933
 20
43.6844902395808
 30
0
 11
-318.8288879950933
 21
69.28449023958081
 31
0
  0
LINE
  8
1
 62
3
  6
CENTER
 10
-306.0288879950933
 20
56.48449023958081
 30
0
 11
-331.6288879950933
 21
56.48449023958081
 31
0
  0
LINE
  8
1
 62
3
  6
CENTER
 10
-406.0288879950933
 20
56.48449023958081
 30
0
 11
-431.6288879950933
 21
56.48449023958081
 31
0
  0
LINE
  8
1
 62
3
  6
CENTER
 10
-418.8288879950933
 20
43.6844902395808
 30
0
 11
-418.8288879950933
 21
69.28449023958081
 31
0
  0
LINE
  8
1
 62
7
 10
-171.8288879950933
 20
86.08449023958082
 30
0
 11
-168.8288879950933
 21
83.08449023958082
 31
0
  0
LINE
  8
1
 62
7
 10
-168.8288879950933
 20
35.48449023958081
 30
0
 11
-171.8288879950933
 21
32.48449023958081
 31
0
  0
LINE
  8
1
 62
7
 10
-171.8288879950933
 20
86.08449023958082
 30
0
 11
-267.2638275494661
 21
86.08449023958082
 31
0
  0
LINE
  8
1
 62
7
 10
-465.8288879950933
 20
32.48449023958081
 30
0
 11
-286.5222007552077
 21
32.48449023958081
 31
0
  0
LINE
  8
1
 62
3
  6
CENTER
 10
10.6524635997451
 20
28.28449023958092
 30
0
 11
10.6524635997451
 21
149.828028737443
 31
0
  0
LINE
  8
1
 62
3
  6
CENTER
 10
38.1524635997451
 20
87.48449023958085
 30
0
 11
-16.84753640025491
 21
87.48449023958085
 31
0
  0
LINE
  8
1
 62
7
 10
-4.918099148731859
 20
86.08449023958082
 30
0
 11
-13.8475364002549
 21
86.08449023958082
 31
0
  0
LINE
  8
1
 62
7
 10
-13.8475364002549
 20
32.48449023958091
 30
0
 11
35.15246359974533
 21
32.48449023958091
 31
0
  0
LINE
  8
1
 62
7
 10
26.22302634822229
 20
86.08449023958082
 30
0
 11
35.15246359974533
 21
86.08449023958082
 31
0
  0
LINE
  8
1
 62
7
 10
26.22302634822229
 20
86.08449023958082
 30
0
 11
10.65246359974509
 21
70.51392749110367
 31
0
  0
LINE
  8
1
 62
7
 10
-16.8475364002549
 20
83.08449023958082
 30
0
 11
-13.8475364002549
 21
86.08449023958082
 31
0
  0
LINE
  8
1
 62
7
 10
-13.8475364002549
 20
32.48449023958091
 30
0
 11
-16.8475364002549
 21
35.48449023958091
 31
0
  0
LINE
  8
1
 62
7
 10
38.15246359974533
 20
35.48449023958091
 30
0
 11
35.15246359974533
 21
32.48449023958091
 31
0
  0
LINE
  8
1
 62
7
 10
35.15246359974533
 20
86.08449023958082
 30
0
 11
38.15246359974533
 21
83.08449023958082
 31
0
  0
LINE
  8
1
 62
7
 10
-468.8288879950932
 20
139.4844902395808
 30
0
 11
-266.0437318556861
 21
139.4844902395808
 31
0
  0
LINE
  8
1
 62
7
 10
-468.8288879950932
 20
91.88449023958081
 30
0
 11
-275.1537797025761
 21
91.88449023958081
 31
0
  0
LINE
  8
1
 62
7
 10
-468.8288879950932
 20
83.08449023958082
 30
0
 11
-276.837990228892
 21
83.08449023958079
 31
0
  0
LINE
  8
1
 62
7
 10
-468.8288879950932
 20
35.48449023958081
 30
0
 11
-285.9480380757819
 21
35.48449023958081
 31
0
  0
LINE
  8
1
 62
7
 10
-58.8288879950933
 20
83.08449023958079
 30
0
 11
-73.75832524661617
 21
83.08449023958079
 31
0
  0
LINE
  8
1
 62
7
 10
-113.8288879950933
 20
35.4844902395808
 30
0
 11
-93.32888799509331
 21
35.48449023958081
 31
0
  0
LINE
  8
1
 62
7
 10
-61.8288879950933
 20
86.08449023958079
 30
0
 11
-61.8288879950933
 21
64.45942742511392
 31
0
  0
LINE
  8
1
 62
7
 10
-110.8288879950933
 20
32.4844902395808
 30
0
 11
-110.8288879950933
 21
54.5095530540477
 31
0
  0
LINE
  8
1
 62
7
 10
-171.8288879950933
 20
142.4844902395808
 30
0
 11
-171.8288879950933
 21
88.88449023958081
 31
0
  0
LINE
  8
1
 62
7
 10
-171.8288879950933
 20
86.08449023958082
 30
0
 11
-171.8288879950933
 21
32.48449023958081
 31
0
  0
LINE
  8
1
 62
7
 10
-465.8288879950933
 20
32.48449023958081
 30
0
 11
-465.8288879950933
 21
86.08449023958082
 31
0
  0
LINE
  8
1
 62
7
 10
-465.8288879950933
 20
88.88449023958081
 30
0
 11
-465.8288879950933
 21
142.4844902395808
 31
0
  0
LINE
  8
1
 62
7
 10
-257.0437318556861
 20
139.4844902395808
 30
0
 11
-168.8288879950933
 21
139.4844902395808
 31
0
  0
LINE
  8
1
 62
7
 10
-266.1537797025761
 20
91.88449023958081
 30
0
 11
-168.8288879950933
 21
91.88449023958081
 31
0
  0
LINE
  8
1
 62
7
 10
-267.8379902288919
 20
83.08449023958079
 30
0
 11
-168.8288879950933
 21
83.08449023958082
 31
0
  0
LINE
  8
1
 62
7
 10
-276.9480380757819
 20
35.48449023958081
 30
0
 11
-168.8288879950933
 21
35.48449023958081
 31
0
  0
LINE
  8
1
 62
7
 10
-98.89945074357043
 20
83.08449023958079
 30
0
 11
-113.8288879950933
 21
83.08449023958079
 31
0
  0
LINE
  8
1
 62
7
 10
-168.8288879950933
 20
90.48449023958079
 30
0
 11
-165.3288879950933
 21
90.48449023958079
 31
0
  0
LINE
  8
1
 62
7
 10
-165.3288879950933
 20
90.48449023958079
 30
0
 11
-163.8288879950933
 21
91.88449023958081
 31
0
  0
LINE
  8
1
 62
7
 10
-163.8288879950933
 20
91.88449023958081
 30
0
 11
-163.8288879950933
 21
138.9844902395808
 31
0
  0
LINE
  8
1
 62
7
 10
-163.8288879950933
 20
138.9844902395808
 30
0
 11
-165.3288879950933
 21
140.4844902395808
 31
0
  0
LINE
  8
1
 62
7
 10
-165.3288879950933
 20
140.4844902395808
 30
0
 11
-168.8288879950933
 21
140.4844902395808
 31
0
  0
LINE
  8
1
 62
7
 10
-165.3288879950933
 20
140.4844902395808
 30
0
 11
-165.3288879950933
 21
90.48449023958079
 31
0
  0
LINE
  8
1
 62
7
 10
-168.8288879950933
 20
84.48449023958082
 30
0
 11
-168.8288879950933
 21
34.48449023958082
 31
0
  0
LINE
  8
1
 62
7
 10
-165.3288879950933
 20
84.48449023958082
 30
0
 11
-168.8288879950933
 21
84.48449023958082
 31
0
  0
LINE
  8
1
 62
7
 10
-163.8288879950933
 20
83.0844902395808
 30
0
 11
-165.3288879950933
 21
84.48449023958082
 31
0
  0
LINE
  8
1
 62
7
 10
-163.8288879950933
 20
35.98449023958082
 30
0
 11
-163.8288879950933
 21
83.0844902395808
 31
0
  0
LINE
  8
1
 62
7
 10
-165.3288879950933
 20
34.48449023958082
 30
0
 11
-163.8288879950933
 21
35.98449023958082
 31
0
  0
LINE
  8
1
 62
7
 10
-168.8288879950933
 20
34.48449023958082
 30
0
 11
-165.3288879950933
 21
34.48449023958082
 31
0
  0
LINE
  8
1
 62
7
 10
-165.3288879950933
 20
84.48449023958082
 30
0
 11
-165.3288879950933
 21
34.48449023958082
 31
0
  0
LINE
  8
1
 62
7
 10
-468.8288879950933
 20
90.48449023958079
 30
0
 11
-468.8288879950933
 21
140.4844902395808
 31
0
  0
LINE
  8
1
 62
7
 10
-472.3288879950933
 20
90.48449023958079
 30
0
 11
-468.8288879950933
 21
90.48449023958079
 31
0
  0
LINE
  8
1
 62
7
 10
-473.8288879950933
 20
91.88449023958081
 30
0
 11
-472.3288879950933
 21
90.48449023958079
 31
0
  0
LINE
  8
1
 62
7
 10
-473.8288879950933
 20
138.9844902395808
 30
0
 11
-473.8288879950933
 21
91.88449023958081
 31
0
  0
LINE
  8
1
 62
7
 10
-472.3288879950933
 20
140.4844902395808
 30
0
 11
-473.8288879950933
 21
138.9844902395808
 31
0
  0
LINE
  8
1
 62
7
 10
-468.8288879950933
 20
140.4844902395808
 30
0
 11
-472.3288879950933
 21
140.4844902395808
 31
0
  0
LINE
  8
1
 62
7
 10
-472.3288879950933
 20
90.48449023958079
 30
0
 11
-472.3288879950933
 21
140.4844902395808
 31
0
  0
LINE
  8
1
 62
7
 10
-468.8288879950933
 20
34.48449023958082
 30
0
 11
-468.8288879950933
 21
84.48449023958082
 31
0
  0
LINE
  8
1
 62
7
 10
-468.8288879950933
 20
84.48449023958082
 30
0
 11
-472.3288879950933
 21
84.48449023958082
 31
0
  0
LINE
  8
1
 62
7
 10
-472.3288879950933
 20
84.48449023958082
 30
0
 11
-473.8288879950933
 21
83.0844902395808
 31
0
  0
LINE
  8
1
 62
7
 10
-473.8288879950933
 20
83.0844902395808
 30
0
 11
-473.8288879950933
 21
35.98449023958082
 31
0
  0
LINE
  8
1
 62
7
 10
-473.8288879950933
 20
35.98449023958082
 30
0
 11
-472.3288879950933
 21
34.48449023958082
 31
0
  0
LINE
  8
1
 62
7
 10
-472.3288879950933
 20
34.48449023958082
 30
0
 11
-468.8288879950933
 21
34.48449023958082
 31
0
  0
LINE
  8
1
 62
7
 10
-472.3288879950933
 20
34.48449023958082
 30
0
 11
-472.3288879950933
 21
84.48449023958082
 31
0
  0
ARC
  8
1
 62
7
 10
-86.3288879950933
 20
115.4844902395808
 30
0
 40
23.50000000000001
 50
92.43885469094987
 51
267.5611453090502
  0
ARC
  8
1
 62
7
 10
-86.3288879950933
 20
115.4844902395808
 30
0
 40
23.5
 50
272.4388546909499
 51
87.56114530905013
  0
ARC
  8
1
 62
7
 10
-86.3288879950933
 20
59.4844902395808
 30
0
 40
23.5
 50
92.43885469094987
 51
267.5611453090502
  0
ARC
  8
1
 62
7
 10
-86.3288879950933
 20
59.4844902395808
 30
0
 40
23.5
 50
272.4388546909499
 51
87.56114530905013
  0
CIRCLE
  8
1
 62
7
 10
-86.3288879950933
 20
115.4844902395808
 30
0
 40
24.99999999999999
  0
CIRCLE
  8
1
 62
7
 10
-86.3288879950933
 20
59.4844902395808
 30
0
 40
25
  0
CIRCLE
  8
1
 62
7
 10
-418.8288879950933
 20
118.4844902395808
 30
0
 40
6.400000000000034
  0
CIRCLE
  8
1
 62
3
 10
-418.8288879950933
 20
118.4844902395808
 30
0
 40
8
  0
CIRCLE
  8
1
 62
7
  6
DASHED
 10
-418.8288879950933
 20
118.4844902395808
 30
0
 40
11
  0
CIRCLE
  8
1
 62
7
  6
DASHED
 10
-318.8288879950933
 20
118.4844902395808
 30
0
 40
11
  0
CIRCLE
  8
1
 62
3
 10
-318.8288879950933
 20
118.4844902395808
 30
0
 40
8
  0
CIRCLE
  8
1
 62
7
 10
-318.8288879950933
 20
118.4844902395808
 30
0
 40
6.400000000000034
  0
CIRCLE
  8
1
 62
7
  6
DASHED
 10
-218.8288879950933
 20
118.4844902395808
 30
0
 40
11
  0
CIRCLE
  8
1
 62
3
 10
-218.8288879950933
 20
118.4844902395808
 30
0
 40
8
  0
CIRCLE
  8
1
 62
7
 10
-218.8288879950933
 20
118.4844902395808
 30
0
 40
6.399999999999977
  0
CIRCLE
  8
1
 62
7
 10
-218.8288879950933
 20
56.48449023958081
 30
0
 40
6.399999999999977
  0
CIRCLE
  8
1
 62
3
 10
-218.8288879950933
 20
56.48449023958081
 30
0
 40
8
  0
CIRCLE
  8
1
 62
7
 10
-218.8288879950933
 20
56.48449023958081
 30
0
 40
11
  0
CIRCLE
  8
1
 62
7
 10
-318.8288879950933
 20
56.48449023958081
 30
0
 40
6.400000000000034
  0
CIRCLE
  8
1
 62
3
 10
-318.8288879950933
 20
56.48449023958081
 30
0
 40
8
  0
CIRCLE
  8
1
 62
7
 10
-318.8288879950933
 20
56.48449023958081
 30
0
 40
11
  0
CIRCLE
  8
1
 62
7
 10
-418.8288879950933
 20
56.48449023958081
 30
0
 40
11
  0
CIRCLE
  8
1
 62
3
 10
-418.8288879950933
 20
56.48449023958081
 30
0
 40
8
  0
CIRCLE
  8
1
 62
7
 10
-418.8288879950933
 20
56.48449023958081
 30
0
 40
6.400000000000034
  0
TEXT
  8
1
 62
2
 10
-475.8012868680813
 20
173.2279110217917
 30
0
 40
6
  1
MODEL : G24
 41
0.7200000000000002
  7
COMPLEX
  0
TEXT
  8
1
 62
2
 10
-40.04347899508445
 20
-24.3710949349368
 30
0
 40
6
  1
UNION TOOL CO.
 41
0.7200000000000002
  7
COMPLEX
  0
ENDSEC
  0
EOF
