  0
SECTION
  2
HEADER
  9
$ACADVER
  1
AC1009
  9
$INSBASE
 10
0
 20
0
  9
$EXTMIN
 10
-146.9986886245365
 20
119.5696339123379
  9
$EXTMAX
 10
-66.32666069118351
 20
175.4462857105374
  9
$LIMMIN
 10
-146.9986886245365
 20
119.5696339123379
  9
$LIMMAX
 10
-66.32666069118351
 20
175.4462857105374
  9
$VIEWCTR
 10
10
 20
10
  9
$VIEWSIZE
 40
10
  9
$SNAPMODE
 70
0
  9
$SNAPUNIT
 10
1
 20
1
  9
$SNAPBASE
 10
0
 20
0
  9
$SNAPANG
 50
0
  9
$SNAPSTYLE
 70
0
  9
$SNAPISOPAIR
 70
0
  9
$GRIDMODE
 70
0
  9
$GRIDUNIT
 10
0
 20
0
  9
$ORTHOMODE
 70
0
  9
$REGENMODE
 70
1
  9
$FILLMODE
 70
1
  9
$QTEXTMODE
 70
0
  9
$DRAGMODE
 70
2
  9
$LTSCALE
 40
1
  9
$OSMODE
 70
0
  9
$ATTMODE
 70
1
  9
$TEXTSIZE
 40
3.5
  9
$TRACEWID
 40
0.5
  9
$TEXTSTYLE
  7
STANDARD
  9
$CLAYER
  8
0
  9
$CELTYPE
  6
BYLAYER
  9
$CECOLOR
 62
256
  9
$DIMSCALE
 40
1
  9
$DIMASZ
 40
0.18
  9
$DIMEXO
 40
0.0625
  9
$DIMDLI
 40
0.38
  9
$DIMRND
 40
0
  9
$DIMDLE
 40
0
  9
$DIMEXE
 40
0.18
  9
$DIMTP
 40
0
  9
$DIMTM
 40
0
  9
$DIMTXT
 40
0.18
  9
$DIMCEN
 40
0.09
  9
$DIMTSZ
 40
0
  9
$DIMTOL
 70
0
  9
$DIMLIM
 70
0
  9
$DIMTIH
 70
1
  9
$DIMTOH
 70
1
  9
$DIMSE1
 70
0
  9
$DIMSE2
 70
0
  9
$DIMTAD
 70
0
  9
$DIMZIN
 70
0
  9
$DIMBLK
  1

  9
$DIMASO
 70
1
  9
$DIMSHO
 70
1
  9
$DIMPOST
  1

  9
$DIMAPOST
  1

  9
$DIMALT
 70
0
  9
$DIMALTD
 70
2
  9
$DIMALTF
 40
25.4
  9
$DIMLFAC
 40
1
  9
$DIMTOFL
 70
0
  9
$DIMTVP
 40
0
  9
$DIMTIX
 70
0
  9
$DIMSOXD
 70
0
  9
$DIMSAH
 70
0
  9
$DIMBLK1
  1

  9
$DIMBLK2
  1

  9
$DIMSTYLE
  2
*UNNAMED
  9
$DIMCLRD
 70
0
  9
$DIMCLRE
 70
0
  9
$DIMCLRT
 70
0
  9
$DIMTFAC
 40
1
  9
$DIMGAP
 40
0.09
  9
$LUNITS
 70
2
  9
$LUPREC
 70
4
  9
$AXISMODE
 70
0
  9
$AXISUNIT
 10
0
 20
0
  9
$SKETCHINC
 40
0.1
  9
$FILLETRAD
 40
2
  9
$AUNITS
 70
0
  9
$AUPREC
 70
0
  9
$MENU
  1
ACAD
  9
$ELEVATION
 40
0
  9
$THICKNESS
 40
0
  9
$VIEWDIR
 10
0
 20
0
 30
1
  9
$LIMCHECK
 70
0
  9
$BLIPMODE
 70
1
  9
$CHAMFERA
 40
0
  9
$CHAMFERB
 40
0
  9
$FASTZOOM
 70
1
  9
$SKPOLY
 70
0
  9
$ANGBASE
 50
0
  9
$ANGDIR
 70
0
  9
$PDMODE
 70
0
  9
$PDSIZE
 40
0
  9
$PLINEWID
 40
0
  9
$COORDS
 70
2
  0
ENDSEC
  0
SECTION
  2
TABLES
  0
TABLE
  2
DIMSTYLE
 70
0
  0
ENDTAB
  0
TABLE
  2
LTYPE
 70
9
  0
LTYPE
  2
CONTINUOUS
 70
64
  3
Solid line
 72
65
 73
0
 40
0
  0
LTYPE
  2
BORDER
 70
64
  3
__ __ . __ __ .
 72
65
 73
6
 40
3.715159181141256
 49
1.061474051754645
 49
-0.5307370258773223
 49
1.061474051754645
 49
-0.5307370258773223
 49
0
 49
-0.5307370258773223
  0
LTYPE
  2
CENTER
 70
64
  3
____ _ ____ _
 72
65
 73
4
 40
4.245896207018578
 49
2.653685129386612
 49
-0.5307370258773223
 49
0.5307370258773223
 49
-0.5307370258773223
  0
LTYPE
  2
DASHDOT
 70
64
  3
__ . __ . __ .
 72
65
 73
4
 40
2.122948103509289
 49
1.061474051754645
 49
-0.5307370258773223
 49
0
 49
-0.5307370258773223
  0
LTYPE
  2
DASHED
 70
64
  3
__ __ __ __ __
 72
65
 73
2
 40
1.592211077631967
 49
1.061474051754645
 49
-0.5307370258773223
  0
LTYPE
  2
DIVIDE
 70
64
  3
__ . . __ . . 
 72
65
 73
6
 40
2.653685129386612
 49
1.061474051754645
 49
-0.5307370258773223
 49
0
 49
-0.5307370258773223
 49
0
 49
-0.5307370258773223
  0
LTYPE
  2
DOT
 70
64
  3
..............
 72
65
 73
4
 40
1.061474051754645
 49
0
 49
-0.5307370258773223
 49
0
 49
-0.5307370258773223
  0
LTYPE
  2
HIDDEN
 70
64
  3
_ _ _ _ _ _ _
 72
65
 73
2
 40
0.7961055388159835
 49
0.5307370258773223
 49
-0.2653685129386612
  0
LTYPE
  2
PHANTOM
 70
64
  3
_____ _ _ _____ _ _ 
 72
65
 73
6
 40
5.307370258773223
 49
2.653685129386612
 49
-0.5307370258773223
 49
0.5307370258773223
 49
-0.5307370258773223
 49
0.5307370258773223
 49
-0.5307370258773223
  0
ENDTAB
  0
TABLE
  2
LAYER
 70
3
  0
LAYER
  2
1
 70
0
 62
7
  6
CONTINUOUS
  0
LAYER
  2
0
 70
0
 62
7
  6
CONTINUOUS
  0
ENDTAB
  0
TABLE
  2
STYLE
 70
4
  0
STYLE
  2
STANDARD
 70
0
 40
0
 41
1
 50
0
 71
0
 42
3.5
  3
txt
  4

  0
STYLE
  2
SIMPLEX
 70
0
 40
0
 41
1
 50
0
 71
0
 42
3.5
  3
simplex
  4

  0
STYLE
  2
COMPLEX
 70
0
 40
0
 41
1
 50
0
 71
0
 42
3.5
  3
complex
  4

  0
STYLE
  2
ITALIC
 70
0
 40
0
 41
1
 50
0
 71
0
 42
3.5
  3
italic
  4

  0
ENDTAB
  0
TABLE
  2
VIEW
 70
0
  0
ENDTAB
  0
ENDSEC
  0
SECTION
  2
BLOCKS
  0
ENDSEC
  0
SECTION
  2
ENTITIES
  0
LINE
  8
1
 62
7
 10
-74.07101397158439
 20
154.3607970660317
 30
0
 11
-74.1830259237197
 21
154.4711529099303
 31
0
  0
LINE
  8
1
 62
7
 10
-73.45899372513441
 20
153.7487768195818
 30
0
 11
-74.47320728750751
 21
154.7629903819549
 31
0
  0
LINE
  8
1
 62
7
 10
-87.3391943034855
 20
156.2645315512624
 30
0
 11
-87.3391943034855
 21
156.7242488242086
 31
0
  0
LINE
  8
1
 62
7
 10
-85.13919430348551
 20
156.2645315512624
 30
0
 11
-85.13919430348551
 21
156.7242488242086
 31
0
  0
LINE
  8
1
 62
7
 10
-86.46905293995869
 20
155.3943901877354
 30
0
 11
-86.00933566701241
 21
155.3943901877354
 31
0
  0
LINE
  8
1
 62
7
 10
-86.46905293995869
 20
157.5943901877354
 30
0
 11
-86.00933566701241
 21
157.5943901877354
 31
0
  0
LINE
  8
1
 62
7
 10
-86.80366967644019
 20
156.2551839341266
 30
0
 11
-87.3391943034855
 21
156.2645315512624
 31
0
  0
LINE
  8
1
 62
7
 10
-86.46905293995869
 20
155.3943901877354
 30
0
 11
-86.4784005570944
 21
155.9299148147807
 31
0
  0
LINE
  8
1
 62
7
 10
-86.57860555845511
 20
156.1549789327659
 30
0
 11
-86.80366967644019
 21
156.2551839341266
 31
0
  0
LINE
  8
1
 62
7
 10
-86.4784005570944
 20
155.9299148147807
 30
0
 11
-86.57860555845511
 21
156.1549789327659
 31
0
  0
LINE
  8
1
 62
7
 10
-85.13919430348551
 20
156.2645315512624
 30
0
 11
-85.67471893053079
 21
156.2551839341266
 31
0
  0
LINE
  8
1
 62
7
 10
-85.99998804987661
 20
155.9299148147807
 30
0
 11
-86.00933566701241
 21
155.3943901877354
 31
0
  0
LINE
  8
1
 62
7
 10
-85.67471893053079
 20
156.2551839341266
 30
0
 11
-85.89978304851599
 21
156.1549789327659
 31
0
  0
LINE
  8
1
 62
7
 10
-85.89978304851599
 20
156.1549789327659
 30
0
 11
-85.99998804987661
 21
155.9299148147807
 31
0
  0
LINE
  8
1
 62
7
 10
-87.3391943034855
 20
156.7242488242086
 30
0
 11
-86.80366967644019
 21
156.7335964413443
 31
0
  0
LINE
  8
1
 62
7
 10
-86.4784005570944
 20
157.0588655606901
 30
0
 11
-86.46905293995869
 21
157.5943901877354
 31
0
  0
LINE
  8
1
 62
7
 10
-86.80366967644019
 20
156.7335964413443
 30
0
 11
-86.57860555845511
 21
156.8338014427049
 31
0
  0
LINE
  8
1
 62
7
 10
-86.57860555845511
 20
156.8338014427049
 30
0
 11
-86.4784005570944
 21
157.0588655606901
 31
0
  0
LINE
  8
1
 62
7
 10
-85.67471893053079
 20
156.7335964413443
 30
0
 11
-85.13919430348551
 21
156.7242488242086
 31
0
  0
LINE
  8
1
 62
7
 10
-86.00933566701241
 20
157.5943901877354
 30
0
 11
-85.99998804987661
 21
157.0588655606901
 31
0
  0
LINE
  8
1
 62
7
 10
-85.89978304851599
 20
156.8338014427049
 30
0
 11
-85.67471893053079
 21
156.7335964413443
 31
0
  0
LINE
  8
1
 62
7
 10
-85.99998804987661
 20
157.0588655606901
 30
0
 11
-85.89978304851599
 21
156.8338014427049
 31
0
  0
LINE
  8
1
 62
7
 10
-114.1023258274771
 20
147.3443901877354
 30
0
 11
-99.2825180752466
 21
147.3443901877354
 31
0
  0
LINE
  8
1
 62
7
 10
-114.0317950351937
 20
147.7443901877354
 30
0
 11
-99.74251807524661
 21
147.7443901877354
 31
0
  0
LINE
  8
1
 62
7
 10
-115.1854255277931
 20
152.5443901877354
 30
0
 11
-143.0225180752466
 21
152.5443901877354
 31
0
  0
LINE
  8
1
 62
7
 10
-113.1148947355097
 20
152.9443901877354
 30
0
 11
-99.2825180752466
 21
152.9443901877354
 31
0
  0
LINE
  8
1
 62
7
 10
-112.9738331509429
 20
153.7443901877354
 30
0
 11
-99.2825180752466
 21
153.7443901877354
 31
0
  0
LINE
  8
1
 62
7
 10
-112.9033023586595
 20
154.1443901877354
 30
0
 11
-99.74251807524661
 21
154.1443901877354
 31
0
  0
LINE
  8
1
 62
7
 10
-112.0569328512589
 20
158.9443901877353
 30
0
 11
-99.74251807524669
 21
158.9443901877353
 31
0
  0
LINE
  8
1
 62
7
 10
-111.9864020589755
 20
159.3443901877354
 30
0
 11
-99.2825180752466
 21
159.3443901877354
 31
0
  0
LINE
  8
1
 62
3
  6
DIVIDE
 10
-111.7501212663961
 20
160.6844051510156
 30
0
 11
-114.4042712762952
 21
145.6319724533368
 31
0
  0
LINE
  8
1
 62
3
  6
DIVIDE
 10
-113.7501212663961
 20
160.6844051510156
 30
0
 11
-116.4042712762952
 21
145.6319724533368
 31
0
  0
LINE
  8
1
 62
7
 10
-73.35951410713869
 20
153.1521291388323
 30
0
 11
-74.27875292268121
 21
152.2328903232898
 31
0
  0
LINE
  8
1
 62
7
 10
-73.34864193166061
 20
153.6367608776499
 30
0
 11
-74.76338865129529
 21
152.222014097387
 31
0
  0
LINE
  8
1
 62
7
 10
-74.1830259237197
 20
154.4711529099303
 30
0
 11
-75.5977726433544
 21
153.0564061296674
 31
0
  0
LINE
  8
1
 62
7
 10
-74.66766165233389
 20
154.4602766840274
 30
0
 11
-75.58690046787629
 21
153.5410378684849
 31
0
  0
LINE
  8
1
 62
7
 10
-73.35951410713869
 20
153.0814184607137
 30
0
 11
-73.35951410713869
 21
153.1521291388323
 31
0
  0
LINE
  8
1
 62
7
 10
-74.27875292268121
 20
152.2328903232898
 30
0
 11
-74.20804224456259
 21
152.2328903232898
 31
0
  0
LINE
  8
1
 62
7
 10
-74.76338865129529
 20
152.222014097387
 30
0
 11
-74.69241038967539
 21
152.222283721572
 31
0
  0
LINE
  8
1
 62
7
 10
-73.34890750542078
 20
153.5657866058265
 30
0
 11
-73.34864193166061
 21
153.6367608776499
 31
0
  0
LINE
  8
1
 62
7
 10
-74.1830259237197
 20
154.4711529099303
 30
0
 11
-74.2540041853396
 21
154.4708832857453
 31
0
  0
LINE
  8
1
 62
7
 10
-75.5975070695942
 20
153.1273804014908
 30
0
 11
-75.5977726433544
 21
153.0564061296674
 31
0
  0
LINE
  8
1
 62
7
 10
-75.58690046787629
 20
153.6117485466035
 30
0
 11
-75.58690046787629
 21
153.5410378684849
 31
0
  0
LINE
  8
1
 62
7
 10
-74.66766165233389
 20
154.4602766840274
 30
0
 11
-74.73837233045251
 21
154.4602766840274
 31
0
  0
LINE
  8
1
 62
7
 10
-98.88251807524671
 20
147.6943901877354
 30
0
 11
-98.88251807524671
 21
152.6943901877353
 31
0
  0
LINE
  8
1
 62
7
 10
-98.88251807524671
 20
158.9943901877353
 30
0
 11
-98.88251807524671
 21
153.9943901877354
 31
0
  0
LINE
  8
1
 62
7
 10
-143.8825180752466
 20
158.9431867561857
 30
0
 11
-143.8825180752467
 21
158.9443901877354
 31
0
  0
LINE
  8
1
 62
7
 10
-143.8825180752466
 20
158.9943901877354
 30
0
 11
-143.8825180752466
 21
153.9943901877354
 31
0
  0
LINE
  8
1
 62
7
 10
-143.8825180752466
 20
147.6943901877354
 30
0
 11
-143.8825180752466
 21
152.6943901877354
 31
0
  0
LINE
  8
1
 62
7
 10
-143.0225180752466
 20
147.7443901877354
 30
0
 11
-116.0317950351937
 21
147.7443901877354
 31
0
  0
LINE
  8
1
 62
3
  6
CENTER
 10
-140.2225180752466
 20
149.8443901877354
 30
0
 11
-132.5425180752466
 21
149.8443901877354
 31
0
  0
LINE
  8
1
 62
7
 10
-143.4825180752466
 20
147.3443901877354
 30
0
 11
-116.1023258274771
 21
147.3443901877354
 31
0
  0
LINE
  8
1
 62
3
  6
CENTER
 10
-110.2225180752467
 20
149.8443901877354
 30
0
 11
-102.5425180752467
 21
149.8443901877354
 31
0
  0
LINE
  8
1
 62
3
  6
CENTER
 10
-136.3825180752467
 20
146.4043901877354
 30
0
 11
-136.3825180752467
 21
160.3643901877354
 31
0
  0
LINE
  8
1
 62
3
  6
CENTER
 10
-109.9025180752467
 20
156.8443901877354
 30
0
 11
-102.8625180752466
 21
156.8443901877354
 31
0
  0
LINE
  8
1
 62
3
  6
CENTER
 10
-139.9025180752466
 20
156.8443901877354
 30
0
 11
-132.8625180752467
 21
156.8443901877354
 31
0
  0
LINE
  8
1
 62
7
 10
-144.9825180752466
 20
153.9943901877354
 30
0
 11
-143.8825180752466
 21
153.9943901877354
 31
0
  0
LINE
  8
1
 62
7
 10
-144.9825180752467
 20
158.9943901877354
 30
0
 11
-143.8825180752466
 21
158.9943901877354
 31
0
  0
LINE
  8
1
 62
7
 10
-145.3825180752467
 20
158.5943901877354
 30
0
 11
-145.3825180752467
 21
154.3943901877354
 31
0
  0
LINE
  8
1
 62
7
 10
-145.3825180752467
 20
158.5943901877354
 30
0
 11
-144.9825180752467
 21
158.9943901877354
 31
0
  0
LINE
  8
1
 62
7
 10
-144.9825180752466
 20
153.9943901877354
 30
0
 11
-145.3825180752467
 21
154.3943901877354
 31
0
  0
LINE
  8
1
 62
7
 10
-144.9825180752467
 20
158.9943901877354
 30
0
 11
-144.9825180752466
 21
153.9943901877354
 31
0
  0
LINE
  8
1
 62
7
 10
-97.78251807524669
 20
158.9943901877354
 30
0
 11
-98.88251807524671
 21
158.9943901877353
 31
0
  0
LINE
  8
1
 62
7
 10
-97.78251807524669
 20
153.9943901877354
 30
0
 11
-98.88251807524671
 21
153.9943901877354
 31
0
  0
LINE
  8
1
 62
7
 10
-97.38251807524671
 20
154.3943901877354
 30
0
 11
-97.78251807524669
 21
153.9943901877354
 31
0
  0
LINE
  8
1
 62
7
 10
-97.78251807524669
 20
158.9943901877354
 30
0
 11
-97.38251807524671
 21
158.5943901877354
 31
0
  0
LINE
  8
1
 62
7
 10
-97.38251807524671
 20
158.5943901877354
 30
0
 11
-97.38251807524671
 21
154.3943901877354
 31
0
  0
LINE
  8
1
 62
7
 10
-97.78251807524669
 20
158.9943901877354
 30
0
 11
-97.78251807524669
 21
153.9943901877354
 31
0
  0
LINE
  8
1
 62
7
 10
-97.78251807524669
 20
152.6943901877354
 30
0
 11
-98.88251807524671
 21
152.6943901877353
 31
0
  0
LINE
  8
1
 62
7
 10
-97.78251807524669
 20
147.6943901877354
 30
0
 11
-98.88251807524671
 21
147.6943901877354
 31
0
  0
LINE
  8
1
 62
7
 10
-97.38251807524671
 20
148.0943901877354
 30
0
 11
-97.78251807524669
 21
147.6943901877354
 31
0
  0
LINE
  8
1
 62
7
 10
-97.78251807524669
 20
152.6943901877354
 30
0
 11
-97.38251807524671
 21
152.2943901877354
 31
0
  0
LINE
  8
1
 62
7
 10
-97.38251807524671
 20
152.2943901877354
 30
0
 11
-97.38251807524671
 21
148.0943901877354
 31
0
  0
LINE
  8
1
 62
7
 10
-97.78251807524669
 20
152.6943901877354
 30
0
 11
-97.78251807524669
 21
147.6943901877354
 31
0
  0
LINE
  8
1
 62
7
 10
-144.9825180752466
 20
147.6943901877353
 30
0
 11
-143.8825180752466
 21
147.6943901877354
 31
0
  0
LINE
  8
1
 62
7
 10
-144.9825180752467
 20
152.6943901877354
 30
0
 11
-143.8825180752466
 21
152.6943901877354
 31
0
  0
LINE
  8
1
 62
7
 10
-145.3825180752467
 20
152.2943901877354
 30
0
 11
-145.3825180752467
 21
148.0943901877354
 31
0
  0
LINE
  8
1
 62
7
 10
-145.3825180752467
 20
152.2943901877354
 30
0
 11
-144.9825180752467
 21
152.6943901877354
 31
0
  0
LINE
  8
1
 62
7
 10
-144.9825180752466
 20
147.6943901877353
 30
0
 11
-145.3825180752467
 21
148.0943901877354
 31
0
  0
LINE
  8
1
 62
7
 10
-144.9825180752467
 20
152.6943901877354
 30
0
 11
-144.9825180752466
 21
147.6943901877353
 31
0
  0
LINE
  8
1
 62
7
 10
-85.0795391823396
 20
153.0898317465082
 30
0
 11
-85.5670351333402
 21
152.6023357955076
 31
0
  0
LINE
  8
1
 62
7
 10
-87.39884942463149
 20
153.5989486289625
 30
0
 11
-86.91135347363081
 21
154.0864445799632
 31
0
  0
LINE
  8
1
 62
7
 10
-87.3882428229137
 20
153.1145804838498
 30
0
 11
-86.88357903597569
 21
152.6099166969117
 31
0
  0
LINE
  8
1
 62
7
 10
-87.15136205121621
 20
153.3514612555473
 30
0
 11
-87.3882428229137
 21
153.1145804838498
 31
0
  0
LINE
  8
1
 62
7
 10
-85.09014578405729
 20
153.574199891621
 30
0
 11
-85.33409762356669
 21
153.3443901877354
 31
0
  0
LINE
  8
1
 62
7
 10
-85.2249807411124
 20
152.9443901877354
 30
0
 11
-85.5670351333402
 21
152.6023357955076
 31
0
  0
LINE
  8
1
 62
7
 10
-83.63919430348551
 20
159.3443901877354
 30
0
 11
-83.23919430348551
 21
158.9443901877354
 31
0
  0
LINE
  8
1
 62
7
 10
-83.23919430348551
 20
154.1443901877354
 30
0
 11
-83.63919430348551
 21
153.7443901877354
 31
0
  0
LINE
  8
1
 62
7
 10
-83.23919430348551
 20
152.5443901877354
 30
0
 11
-83.63919430348551
 21
152.9443901877354
 31
0
  0
LINE
  8
1
 62
7
 10
-83.63919430348551
 20
147.3443901877354
 30
0
 11
-83.23919430348551
 21
147.7443901877354
 31
0
  0
LINE
  8
1
 62
7
 10
-89.23919430348551
 20
147.7443901877354
 30
0
 11
-88.8391943034855
 21
147.3443901877354
 31
0
  0
LINE
  8
1
 62
7
 10
-89.23919430348551
 20
152.5443901877354
 30
0
 11
-88.8391943034855
 21
152.9443901877354
 31
0
  0
LINE
  8
1
 62
7
 10
-89.23919430348551
 20
154.1443901877354
 30
0
 11
-88.8391943034855
 21
153.7443901877354
 31
0
  0
LINE
  8
1
 62
7
 10
-89.23919430348551
 20
158.9443901877354
 30
0
 11
-88.8391943034855
 21
159.3443901877354
 31
0
  0
LINE
  8
1
 62
7
 10
-89.23919430348551
 20
158.9443901877354
 30
0
 11
-89.23919430348551
 21
154.1443901877354
 31
0
  0
LINE
  8
1
 62
7
 10
-88.8391943034855
 20
159.3443901877354
 30
0
 11
-83.63919430348551
 21
159.3443901877354
 31
0
  0
LINE
  8
1
 62
7
 10
-83.23919430348551
 20
154.1443901877354
 30
0
 11
-83.23919430348551
 21
158.9443901877354
 31
0
  0
LINE
  8
1
 62
7
 10
-89.23919430348551
 20
152.5443901877354
 30
0
 11
-89.23919430348551
 21
147.7443901877354
 31
0
  0
LINE
  8
1
 62
7
 10
-88.8391943034855
 20
147.3443901877354
 30
0
 11
-83.63919430348551
 21
147.3443901877354
 31
0
  0
LINE
  8
1
 62
7
 10
-83.23919430348551
 20
147.7443901877354
 30
0
 11
-83.23919430348551
 21
152.5443901877354
 31
0
  0
LINE
  8
1
 62
7
 10
-85.2249807411124
 20
152.9443901877354
 30
0
 11
-83.63919430348551
 21
152.9443901877354
 31
0
  0
LINE
  8
1
 62
7
 10
-87.25340786585861
 20
152.9443901877354
 30
0
 11
-88.8391943034855
 21
152.9443901877354
 31
0
  0
LINE
  8
1
 62
7
 10
-87.25340786585861
 20
153.7443901877354
 30
0
 11
-88.8391943034855
 21
153.7443901877354
 31
0
  0
LINE
  8
1
 62
7
 10
-85.2249807411124
 20
153.7443901877354
 30
0
 11
-83.63919430348551
 21
153.7443901877354
 31
0
  0
LINE
  8
1
 62
4
  6
DASHDOT
 10
-74.47320728750751
 20
159.9375484757201
 30
0
 11
-74.47320728750751
 21
146.6870161812182
 31
0
  0
LINE
  8
1
 62
7
 10
-77.0732072875075
 20
147.3443901877354
 30
0
 11
-77.47320728750751
 21
147.7443901877354
 31
0
  0
LINE
  8
1
 62
7
 10
-77.37320728750748
 20
147.6443901877354
 30
0
 11
-75.47320728750751
 21
147.6443901877354
 31
0
  0
LINE
  8
1
 62
7
 10
-75.47320728750751
 20
152.0443901877354
 30
0
 11
-77.47320728750751
 21
152.0443901877354
 31
0
  0
LINE
  8
1
 62
3
  6
CENTER
 10
-78.0732072875075
 20
149.8443901877354
 30
0
 11
-70.6732072875075
 21
149.8443901877354
 31
0
  0
LINE
  8
1
 62
7
 10
-75.48742084988061
 20
152.9443901877354
 30
0
 11
-77.0732072875075
 21
152.9443901877354
 31
0
  0
LINE
  8
1
 62
7
 10
-75.48742084988061
 20
152.9443901877354
 30
0
 11
-74.47320728750751
 21
151.9301766253623
 31
0
  0
LINE
  8
1
 62
7
 10
-74.47320728750751
 20
151.9301766253623
 30
0
 11
-73.45899372513441
 21
152.9443901877354
 31
0
  0
LINE
  8
1
 62
7
 10
-73.45899372513441
 20
152.9443901877354
 30
0
 11
-71.87320728750748
 21
152.9443901877354
 31
0
  0
LINE
  8
1
 62
7
 10
-77.0732072875075
 20
147.3443901877354
 30
0
 11
-71.87320728750748
 21
147.3443901877354
 31
0
  0
LINE
  8
1
 62
7
 10
-77.47320728750751
 20
152.5443901877354
 30
0
 11
-77.47320728750751
 21
147.7443901877354
 31
0
  0
LINE
  8
1
 62
7
 10
-77.47320728750751
 20
152.5443901877354
 30
0
 11
-77.0732072875075
 21
152.9443901877354
 31
0
  0
LINE
  8
1
 62
7
 10
-71.87320728750748
 20
147.3443901877354
 30
0
 11
-71.47320728750751
 21
147.7443901877354
 31
0
  0
LINE
  8
1
 62
7
 10
-71.47320728750751
 20
152.5443901877354
 30
0
 11
-71.87320728750748
 21
152.9443901877354
 31
0
  0
LINE
  8
1
 62
4
  6
CENTER
 10
-77.62971501106549
 20
153.3465835036586
 30
0
 11
-71.37073764736348
 21
153.3465835036586
 31
0
  0
LINE
  8
1
 62
4
  6
DASHDOT
 10
-146.5404532154354
 20
153.3443901877354
 30
0
 11
-95.55437970770959
 21
153.3443901877354
 31
0
  0
LINE
  8
1
 62
7
 10
-143.0225180752466
 20
158.9443901877354
 30
0
 11
-114.0569328512589
 21
158.9443901877353
 31
0
  0
LINE
  8
1
 62
7
 10
-99.74251807524661
 20
153.7443901877354
 30
0
 11
-99.74251807524661
 21
154.1443901877354
 31
0
  0
LINE
  8
1
 62
7
 10
-99.74251807524669
 20
158.9443901877353
 30
0
 11
-99.74251807524661
 21
159.3443901877354
 31
0
  0
LINE
  8
1
 62
7
 10
-143.0225180752466
 20
153.7443901877354
 30
0
 11
-143.0225180752466
 21
154.1443901877354
 31
0
  0
LINE
  8
1
 62
7
 10
-143.0225180752466
 20
158.9443901877354
 30
0
 11
-143.0225180752466
 21
159.3443901877354
 31
0
  0
LINE
  8
1
 62
7
 10
-98.88251807524671
 20
158.9443901877354
 30
0
 11
-99.2825180752466
 21
159.3443901877354
 31
0
  0
LINE
  8
1
 62
7
 10
-98.88251807524671
 20
154.1443901877354
 30
0
 11
-99.2825180752466
 21
153.7443901877354
 31
0
  0
LINE
  8
1
 62
7
 10
-143.8825180752467
 20
154.1443901877354
 30
0
 11
-143.4825180752466
 21
153.7443901877354
 31
0
  0
LINE
  8
1
 62
7
 10
-143.4825180752466
 20
159.3443901877354
 30
0
 11
-143.8825180752467
 21
158.9443901877354
 31
0
  0
LINE
  8
1
 62
7
 10
-143.4825180752466
 20
159.3443901877354
 30
0
 11
-113.9864020589755
 21
159.3443901877354
 31
0
  0
LINE
  8
1
 62
7
 10
-143.0225180752466
 20
154.1443901877354
 30
0
 11
-114.9033023586595
 21
154.1443901877354
 31
0
  0
LINE
  8
1
 62
7
 10
-143.4825180752466
 20
153.7443901877354
 30
0
 11
-114.9738331509429
 21
153.7443901877354
 31
0
  0
LINE
  8
1
 62
7
 10
-99.74251807524661
 20
152.5443901877354
 30
0
 11
-99.74251807524661
 21
152.9443901877354
 31
0
  0
LINE
  8
1
 62
7
 10
-99.74251807524661
 20
147.3443901877354
 30
0
 11
-99.74251807524661
 21
147.7443901877354
 31
0
  0
LINE
  8
1
 62
7
 10
-143.0225180752466
 20
152.5443901877354
 30
0
 11
-143.0225180752466
 21
152.9443901877354
 31
0
  0
LINE
  8
1
 62
7
 10
-143.0225180752466
 20
147.3443901877354
 30
0
 11
-143.0225180752466
 21
147.7443901877354
 31
0
  0
LINE
  8
1
 62
7
 10
-99.2825180752466
 20
147.3443901877354
 30
0
 11
-98.88251807524671
 21
147.7443901877354
 31
0
  0
LINE
  8
1
 62
7
 10
-99.2825180752466
 20
152.9443901877354
 30
0
 11
-98.88251807524671
 21
152.5443901877354
 31
0
  0
LINE
  8
1
 62
7
 10
-143.4825180752466
 20
152.9443901877354
 30
0
 11
-143.8825180752467
 21
152.5443901877354
 31
0
  0
LINE
  8
1
 62
7
 10
-143.8825180752467
 20
147.7443901877354
 30
0
 11
-143.4825180752466
 21
147.3443901877354
 31
0
  0
LINE
  8
1
 62
7
 10
-99.74251807524661
 20
152.5443901877354
 30
0
 11
-113.1854255277931
 21
152.5443901877354
 31
0
  0
LINE
  8
1
 62
7
 10
-143.4825180752466
 20
152.9443901877354
 30
0
 11
-115.1148947355097
 21
152.9443901877354
 31
0
  0
LINE
  8
1
 62
4
  6
DASHDOT
 10
-90.2137228146822
 20
153.3443901877354
 30
0
 11
-82.32161498767991
 21
153.3443901877354
 31
0
  0
LINE
  8
1
 62
7
 10
-71.47320728750751
 20
152.5443901877354
 30
0
 11
-71.47320728750751
 21
147.7443901877354
 31
0
  0
LINE
  8
1
 62
3
 10
-75.47320728750751
 20
148.3443901877354
 30
0
 11
-71.47320728750751
 21
148.3443901877354
 31
0
  0
LINE
  8
1
 62
7
 10
-75.47320728750751
 20
147.6443901877354
 30
0
 11
-75.47320728750751
 21
152.0443901877354
 31
0
  0
LINE
  8
1
 62
3
 10
-75.47320728750751
 20
151.3443901877354
 30
0
 11
-71.47320728750751
 21
151.3443901877354
 31
0
  0
LINE
  8
1
 62
7
 10
-75.47320728750751
 20
148.6443901877354
 30
0
 11
-71.47320728750751
 21
148.6443901877354
 31
0
  0
LINE
  8
1
 62
7
 10
-75.47320728750751
 20
151.0443901877354
 30
0
 11
-71.47320728750751
 21
151.0443901877354
 31
0
  0
LINE
  8
1
 62
3
  6
CENTER
 10
-106.3825180752467
 20
160.3643901877354
 30
0
 11
-106.3825180752467
 21
146.4043901877354
 31
0
  0
LINE
  8
1
 62
7
 10
-85.56703513334028
 20
154.0864445799632
 30
0
 11
-85.2249807411124
 21
153.7443901877354
 31
0
  0
LINE
  8
1
 62
7
 10
-85.59480957099541
 20
154.078863678559
 30
0
 11
-85.09014578405729
 21
153.574199891621
 31
0
  0
LINE
  8
1
 62
7
 10
-85.99595849163799
 20
154.0062510558067
 30
0
 11
-85.0795391823396
 21
153.0898317465082
 31
0
  0
LINE
  8
1
 62
7
 10
-86.4824301153331
 20
152.6825293196641
 30
0
 11
-87.39884942463149
 21
153.5989486289625
 31
0
  0
LINE
  8
1
 62
7
 10
-86.91135347363081
 20
152.6023357955076
 30
0
 11
-87.25340786585861
 21
152.9443901877354
 31
0
  0
LINE
  8
1
 62
7
 10
-71.87320728750748
 20
159.3487768195818
 30
0
 11
-71.47320728750751
 21
158.9487768195818
 31
0
  0
LINE
  8
1
 62
7
 10
-71.5732072875075
 20
159.0487768195818
 30
0
 11
-73.47320728750751
 21
159.0487768195818
 31
0
  0
LINE
  8
1
 62
7
 10
-73.47320728750751
 20
154.6487768195818
 30
0
 11
-71.47320728750751
 21
154.6487768195818
 31
0
  0
LINE
  8
1
 62
3
  6
CENTER
 10
-70.87320728750748
 20
156.8487768195818
 30
0
 11
-78.27320728750749
 21
156.8487768195818
 31
0
  0
LINE
  8
1
 62
7
 10
-73.45899372513441
 20
153.7487768195818
 30
0
 11
-71.87320728750748
 21
153.7487768195818
 31
0
  0
LINE
  8
1
 62
7
 10
-74.47320728750751
 20
154.7629903819549
 30
0
 11
-75.48742084988061
 21
153.7487768195818
 31
0
  0
LINE
  8
1
 62
7
 10
-75.48742084988061
 20
153.7487768195818
 30
0
 11
-77.0732072875075
 21
153.7487768195818
 31
0
  0
LINE
  8
1
 62
7
 10
-71.87320728750748
 20
159.3487768195818
 30
0
 11
-77.0732072875075
 21
159.3487768195818
 31
0
  0
LINE
  8
1
 62
7
 10
-71.47320728750751
 20
154.1487768195818
 30
0
 11
-71.47320728750751
 21
158.9487768195818
 31
0
  0
LINE
  8
1
 62
7
 10
-71.47320728750751
 20
154.1487768195818
 30
0
 11
-71.87320728750748
 21
153.7487768195818
 31
0
  0
LINE
  8
1
 62
7
 10
-77.0732072875075
 20
159.3487768195818
 30
0
 11
-77.47320728750751
 21
158.9487768195818
 31
0
  0
LINE
  8
1
 62
7
 10
-77.47320728750751
 20
154.1487768195818
 30
0
 11
-77.0732072875075
 21
153.7487768195818
 31
0
  0
LINE
  8
1
 62
7
 10
-77.47320728750751
 20
154.1487768195818
 30
0
 11
-77.47320728750751
 21
158.9487768195818
 31
0
  0
LINE
  8
1
 62
3
 10
-73.47320728750751
 20
158.3487768195818
 30
0
 11
-77.47320728750751
 21
158.3487768195818
 31
0
  0
LINE
  8
1
 62
7
 10
-73.47320728750751
 20
159.0487768195818
 30
0
 11
-73.47320728750751
 21
154.6487768195818
 31
0
  0
LINE
  8
1
 62
3
 10
-73.47320728750751
 20
155.3487768195818
 30
0
 11
-77.47320728750751
 21
155.3487768195818
 31
0
  0
LINE
  8
1
 62
7
 10
-73.47320728750751
 20
158.0487768195818
 30
0
 11
-77.47320728750751
 21
158.0487768195818
 31
0
  0
LINE
  8
1
 62
7
 10
-73.47320728750751
 20
155.6487768195818
 30
0
 11
-77.47320728750751
 21
155.6487768195818
 31
0
  0
LINE
  8
1
 62
7
 10
-74.46613621969559
 20
154.2587512513892
 30
0
 11
-74.66766165233389
 21
154.4602766840274
 31
0
  0
LINE
  8
1
 62
7
 10
-74.73837233045251
 20
154.4602766840274
 30
0
 11
-75.58690046787629
 21
153.6117485466035
 31
0
  0
LINE
  8
1
 62
7
 10
-75.58690046787629
 20
153.5410378684849
 30
0
 11
-75.38537503523818
 21
153.3395124358467
 31
0
  0
LINE
  8
1
 62
7
 10
-74.4802783553194
 20
152.434415755928
 30
0
 11
-74.27875292268121
 21
152.2328903232898
 31
0
  0
LINE
  8
1
 62
7
 10
-74.20804224456259
 20
152.2328903232898
 30
0
 11
-73.35951410713869
 21
153.0814184607137
 31
0
  0
LINE
  8
1
 62
7
 10
-73.35951410713869
 20
153.1521291388323
 30
0
 11
-73.56103953977689
 21
153.3536545714705
 31
0
  0
LINE
  8
1
 62
7
 10
-74.2540041853396
 20
154.4708832857453
 30
0
 11
-75.5975070695942
 21
153.1273804014908
 31
0
  0
LINE
  8
1
 62
7
 10
-75.5977726433544
 20
153.0564061296674
 30
0
 11
-75.48742084988061
 21
152.9443901877354
 31
0
  0
LINE
  8
1
 62
7
 10
-74.87320728750748
 20
152.3301766253623
 30
0
 11
-74.76338865129529
 21
152.222014097387
 31
0
  0
LINE
  8
1
 62
7
 10
-74.69241038967539
 20
152.222283721572
 30
0
 11
-73.34890750542078
 21
153.5657866058265
 31
0
  0
LINE
  8
1
 62
7
 10
-73.34864193166061
 20
153.6367608776499
 30
0
 11
-73.45899372513441
 21
153.7487768195818
 31
0
  0
LINE
  8
1
 62
3
  6
CENTER
 10
-125.2225180752467
 20
149.8443901877354
 30
0
 11
-117.5425180752467
 21
149.8443901877354
 31
0
  0
LINE
  8
1
 62
3
  6
CENTER
 10
-124.9025180752467
 20
156.8443901877354
 30
0
 11
-117.8625180752466
 21
156.8443901877354
 31
0
  0
LINE
  8
1
 62
3
  6
CENTER
 10
-121.3825180752467
 20
160.3643901877354
 30
0
 11
-121.3825180752467
 21
146.4043901877354
 31
0
  0
LINE
  8
1
 62
7
 10
-87.3391943034855
 20
149.9645315512624
 30
0
 11
-87.3391943034855
 21
150.4242488242086
 31
0
  0
LINE
  8
1
 62
7
 10
-85.13919430348551
 20
149.9645315512624
 30
0
 11
-85.13919430348551
 21
150.4242488242086
 31
0
  0
LINE
  8
1
 62
7
 10
-86.46905293995869
 20
149.0943901877354
 30
0
 11
-86.00933566701241
 21
149.0943901877354
 31
0
  0
LINE
  8
1
 62
7
 10
-86.46905293995869
 20
151.2943901877354
 30
0
 11
-86.00933566701241
 21
151.2943901877354
 31
0
  0
LINE
  8
1
 62
7
 10
-86.80366967644019
 20
149.9551839341266
 30
0
 11
-87.3391943034855
 21
149.9645315512624
 31
0
  0
LINE
  8
1
 62
7
 10
-86.46905293995869
 20
149.0943901877354
 30
0
 11
-86.4784005570944
 21
149.6299148147807
 31
0
  0
LINE
  8
1
 62
7
 10
-86.57860555845511
 20
149.8549789327659
 30
0
 11
-86.80366967644019
 21
149.9551839341266
 31
0
  0
LINE
  8
1
 62
7
 10
-86.4784005570944
 20
149.6299148147807
 30
0
 11
-86.57860555845511
 21
149.8549789327659
 31
0
  0
LINE
  8
1
 62
7
 10
-85.13919430348551
 20
149.9645315512624
 30
0
 11
-85.67471893053079
 21
149.9551839341266
 31
0
  0
LINE
  8
1
 62
7
 10
-85.99998804987661
 20
149.6299148147807
 30
0
 11
-86.00933566701241
 21
149.0943901877354
 31
0
  0
LINE
  8
1
 62
7
 10
-85.67471893053079
 20
149.9551839341266
 30
0
 11
-85.89978304851599
 21
149.8549789327659
 31
0
  0
LINE
  8
1
 62
7
 10
-85.89978304851599
 20
149.8549789327659
 30
0
 11
-85.99998804987661
 21
149.6299148147807
 31
0
  0
LINE
  8
1
 62
7
 10
-87.3391943034855
 20
150.4242488242086
 30
0
 11
-86.80366967644019
 21
150.4335964413443
 31
0
  0
LINE
  8
1
 62
7
 10
-86.4784005570944
 20
150.7588655606901
 30
0
 11
-86.46905293995869
 21
151.2943901877354
 31
0
  0
LINE
  8
1
 62
7
 10
-86.80366967644019
 20
150.4335964413443
 30
0
 11
-86.57860555845511
 21
150.5338014427049
 31
0
  0
LINE
  8
1
 62
7
 10
-86.57860555845511
 20
150.5338014427049
 30
0
 11
-86.4784005570944
 21
150.7588655606901
 31
0
  0
LINE
  8
1
 62
7
 10
-85.67471893053079
 20
150.4335964413443
 30
0
 11
-85.13919430348551
 21
150.4242488242086
 31
0
  0
LINE
  8
1
 62
7
 10
-86.00933566701241
 20
151.2943901877354
 30
0
 11
-85.99998804987661
 21
150.7588655606901
 31
0
  0
LINE
  8
1
 62
7
 10
-85.89978304851599
 20
150.5338014427049
 30
0
 11
-85.67471893053079
 21
150.4335964413443
 31
0
  0
LINE
  8
1
 62
7
 10
-85.99998804987661
 20
150.7588655606901
 30
0
 11
-85.89978304851599
 21
150.5338014427049
 31
0
  0
ARC
  8
1
 62
7
 10
-137.208543935489
 20
156.5443901877354
 30
0
 40
6.289856540317146
 50
157.569236590379
 51
202.4307634096208
  0
ARC
  8
1
 62
7
 10
-105.6493922535854
 20
156.5443901877354
 30
0
 40
6.375826421627671
 50
337.8877845154804
 51
22.11221548451944
  0
ARC
  8
1
 62
7
 10
-137.2085439354889
 20
150.1443901877354
 30
0
 40
6.289856540317214
 50
157.5692365903795
 51
202.4307634096207
  0
ARC
  8
1
 62
7
 10
-105.6493922535854
 20
150.1443901877354
 30
0
 40
6.375826421627682
 50
337.8877845154801
 51
22.11221548451962
  0
CIRCLE
  8
1
 62
7
 10
-86.23919430348551
 20
150.1943901877354
 30
0
 40
2.09999999999997
  0
CIRCLE
  8
1
 62
7
 10
-86.23919430348551
 20
156.4943901877354
 30
0
 40
2.09999999999997
  0
CIRCLE
  8
1
 62
7
 10
-136.3825180752467
 20
149.8443901877354
 30
0
 40
2.200000000000102
  0
CIRCLE
  8
1
 62
3
 10
-136.3825180752467
 20
149.8443901877354
 30
0
 40
1.5
  0
CIRCLE
  8
1
 62
7
 10
-136.3825180752467
 20
149.8443901877354
 30
0
 40
1.199999999999903
  0
CIRCLE
  8
1
 62
7
 10
-106.3825180752467
 20
149.8443901877354
 30
0
 40
1.199999999999903
  0
CIRCLE
  8
1
 62
3
 10
-106.3825180752467
 20
149.8443901877354
 30
0
 40
1.5
  0
CIRCLE
  8
1
 62
7
 10
-106.3825180752467
 20
149.8443901877354
 30
0
 40
2.200000000000088
  0
CIRCLE
  8
1
 62
7
  6
DASHED
 10
-136.3825180752467
 20
156.8443901877354
 30
0
 40
2.200000000000102
  0
CIRCLE
  8
1
 62
7
 10
-136.3825180752467
 20
156.8443901877354
 30
0
 40
1.199999999999903
  0
CIRCLE
  8
1
 62
3
 10
-136.3825180752467
 20
156.8443901877354
 30
0
 40
1.5
  0
CIRCLE
  8
1
 62
7
  6
DASHED
 10
-106.3825180752467
 20
156.8443901877354
 30
0
 40
2.200000000000088
  0
CIRCLE
  8
1
 62
7
 10
-106.3825180752467
 20
156.8443901877354
 30
0
 40
1.199999999999903
  0
CIRCLE
  8
1
 62
3
 10
-106.3825180752467
 20
156.8443901877354
 30
0
 40
1.5
  0
CIRCLE
  8
1
 62
7
 10
-86.23919430348551
 20
156.4943901877354
 30
0
 40
2.499999999999994
  0
CIRCLE
  8
1
 62
7
 10
-86.23919430348551
 20
150.1943901877354
 30
0
 40
2.499999999999994
  0
CIRCLE
  8
1
 62
7
 10
-121.3825180752467
 20
149.8443901877354
 30
0
 40
1.199999999999903
  0
CIRCLE
  8
1
 62
3
 10
-121.3825180752467
 20
149.8443901877354
 30
0
 40
1.5
  0
CIRCLE
  8
1
 62
7
 10
-121.3825180752467
 20
149.8443901877354
 30
0
 40
2.200000000000088
  0
CIRCLE
  8
1
 62
7
  6
DASHED
 10
-121.3825180752467
 20
156.8443901877354
 30
0
 40
2.200000000000088
  0
CIRCLE
  8
1
 62
7
 10
-121.3825180752467
 20
156.8443901877354
 30
0
 40
1.199999999999903
  0
CIRCLE
  8
1
 62
3
 10
-121.3825180752467
 20
156.8443901877354
 30
0
 40
1.5
  0
TEXT
  8
1
 62
2
 10
-146.9986886245365
 20
171.9462857105374
 30
0
 40
3.5
  1
MODEL : G2
 41
0.72
  7
COMPLEX
  0
TEXT
  8
1
 62
2
 10
-102.6566606911835
 20
119.5696339123379
 30
0
 40
3.5
  1
UNION TOOL CO.
 41
0.72
  7
COMPLEX
  0
ENDSEC
  0
EOF
