  0
SECTION
  2
HEADER
  9
$ACADVER
  1
AC1009
  9
$INSBASE
 10
0
 20
0
  9
$EXTMIN
 10
-283.4966370788483
 20
67.3963821853925
  9
$EXTMAX
 10
129.876915042392
 20
219.705848301009
  9
$LIMMIN
 10
-283.4966370788483
 20
67.3963821853925
  9
$LIMMAX
 10
129.876915042392
 20
219.705848301009
  9
$VIEWCTR
 10
10
 20
10
  9
$VIEWSIZE
 40
10
  9
$SNAPMODE
 70
0
  9
$SNAPUNIT
 10
1
 20
1
  9
$SNAPBASE
 10
0
 20
0
  9
$SNAPANG
 50
0
  9
$SNAPSTYLE
 70
0
  9
$SNAPISOPAIR
 70
0
  9
$GRIDMODE
 70
0
  9
$GRIDUNIT
 10
0
 20
0
  9
$ORTHOMODE
 70
0
  9
$REGENMODE
 70
1
  9
$FILLMODE
 70
1
  9
$QTEXTMODE
 70
0
  9
$DRAGMODE
 70
2
  9
$LTSCALE
 40
1
  9
$OSMODE
 70
0
  9
$ATTMODE
 70
1
  9
$TEXTSIZE
 40
3.5
  9
$TRACEWID
 40
0.5
  9
$TEXTSTYLE
  7
STANDARD
  9
$CLAYER
  8
0
  9
$CELTYPE
  6
BYLAYER
  9
$CECOLOR
 62
256
  9
$DIMSCALE
 40
1
  9
$DIMASZ
 40
0.18
  9
$DIMEXO
 40
0.0625
  9
$DIMDLI
 40
0.38
  9
$DIMRND
 40
0
  9
$DIMDLE
 40
0
  9
$DIMEXE
 40
0.18
  9
$DIMTP
 40
0
  9
$DIMTM
 40
0
  9
$DIMTXT
 40
0.18
  9
$DIMCEN
 40
0.09
  9
$DIMTSZ
 40
0
  9
$DIMTOL
 70
0
  9
$DIMLIM
 70
0
  9
$DIMTIH
 70
1
  9
$DIMTOH
 70
1
  9
$DIMSE1
 70
0
  9
$DIMSE2
 70
0
  9
$DIMTAD
 70
0
  9
$DIMZIN
 70
0
  9
$DIMBLK
  1

  9
$DIMASO
 70
1
  9
$DIMSHO
 70
1
  9
$DIMPOST
  1

  9
$DIMAPOST
  1

  9
$DIMALT
 70
0
  9
$DIMALTD
 70
2
  9
$DIMALTF
 40
25.4
  9
$DIMLFAC
 40
1
  9
$DIMTOFL
 70
0
  9
$DIMTVP
 40
0
  9
$DIMTIX
 70
0
  9
$DIMSOXD
 70
0
  9
$DIMSAH
 70
0
  9
$DIMBLK1
  1

  9
$DIMBLK2
  1

  9
$DIMSTYLE
  2
*UNNAMED
  9
$DIMCLRD
 70
0
  9
$DIMCLRE
 70
0
  9
$DIMCLRT
 70
0
  9
$DIMTFAC
 40
1
  9
$DIMGAP
 40
0.09
  9
$LUNITS
 70
2
  9
$LUPREC
 70
4
  9
$AXISMODE
 70
0
  9
$AXISUNIT
 10
0
 20
0
  9
$SKETCHINC
 40
0.1
  9
$FILLETRAD
 40
2
  9
$AUNITS
 70
0
  9
$AUPREC
 70
0
  9
$MENU
  1
ACAD
  9
$ELEVATION
 40
0
  9
$THICKNESS
 40
0
  9
$VIEWDIR
 10
0
 20
0
 30
1
  9
$LIMCHECK
 70
0
  9
$BLIPMODE
 70
1
  9
$CHAMFERA
 40
0
  9
$CHAMFERB
 40
0
  9
$FASTZOOM
 70
1
  9
$SKPOLY
 70
0
  9
$ANGBASE
 50
0
  9
$ANGDIR
 70
0
  9
$PDMODE
 70
0
  9
$PDSIZE
 40
0
  9
$PLINEWID
 40
0
  9
$COORDS
 70
2
  0
ENDSEC
  0
SECTION
  2
TABLES
  0
TABLE
  2
DIMSTYLE
 70
0
  0
ENDTAB
  0
TABLE
  2
LTYPE
 70
9
  0
LTYPE
  2
CONTINUOUS
 70
64
  3
Solid line
 72
65
 73
0
 40
0
  0
LTYPE
  2
BORDER
 70
64
  3
__ __ . __ __ .
 72
65
 73
6
 40
19.03693990032028
 49
5.439125685805794
 49
-2.719562842902897
 49
5.439125685805794
 49
-2.719562842902897
 49
0
 49
-2.719562842902897
  0
LTYPE
  2
CENTER
 70
64
  3
____ _ ____ _
 72
65
 73
4
 40
21.75650274322318
 49
13.59781421451449
 49
-2.719562842902897
 49
2.719562842902897
 49
-2.719562842902897
  0
LTYPE
  2
DASHDOT
 70
64
  3
__ . __ . __ .
 72
65
 73
4
 40
10.87825137161159
 49
5.439125685805794
 49
-2.719562842902897
 49
0
 49
-2.719562842902897
  0
LTYPE
  2
DASHED
 70
64
  3
__ __ __ __ __
 72
65
 73
2
 40
8.158688528708691
 49
5.439125685805794
 49
-2.719562842902897
  0
LTYPE
  2
DIVIDE
 70
64
  3
__ . . __ . . 
 72
65
 73
6
 40
13.59781421451449
 49
5.439125685805794
 49
-2.719562842902897
 49
0
 49
-2.719562842902897
 49
0
 49
-2.719562842902897
  0
LTYPE
  2
DOT
 70
64
  3
..............
 72
65
 73
4
 40
5.439125685805794
 49
0
 49
-2.719562842902897
 49
0
 49
-2.719562842902897
  0
LTYPE
  2
HIDDEN
 70
64
  3
_ _ _ _ _ _ _
 72
65
 73
2
 40
4.079344264354345
 49
2.719562842902897
 49
-1.359781421451449
  0
LTYPE
  2
PHANTOM
 70
64
  3
_____ _ _ _____ _ _ 
 72
65
 73
6
 40
27.19562842902897
 49
13.59781421451449
 49
-2.719562842902897
 49
2.719562842902897
 49
-2.719562842902897
 49
2.719562842902897
 49
-2.719562842902897
  0
ENDTAB
  0
TABLE
  2
LAYER
 70
3
  0
LAYER
  2
1
 70
0
 62
7
  6
CONTINUOUS
  0
LAYER
  2
0
 70
0
 62
7
  6
CONTINUOUS
  0
ENDTAB
  0
TABLE
  2
STYLE
 70
4
  0
STYLE
  2
STANDARD
 70
0
 40
0
 41
1
 50
0
 71
0
 42
3.5
  3
txt
  4

  0
STYLE
  2
SIMPLEX
 70
0
 40
0
 41
1
 50
0
 71
0
 42
3.5
  3
simplex
  4

  0
STYLE
  2
COMPLEX
 70
0
 40
0
 41
1
 50
0
 71
0
 42
3.5
  3
complex
  4

  0
STYLE
  2
ITALIC
 70
0
 40
0
 41
1
 50
0
 71
0
 42
3.5
  3
italic
  4

  0
ENDTAB
  0
TABLE
  2
VIEW
 70
0
  0
ENDTAB
  0
ENDSEC
  0
SECTION
  2
BLOCKS
  0
ENDSEC
  0
SECTION
  2
ENTITIES
  0
LINE
  8
1
 62
7
 10
-81.85272589095995
 20
126.652947993247
 30
0
 11
18.50336292115173
 21
126.652947993247
 31
0
  0
LINE
  8
1
 62
7
 10
-81.50007192954301
 20
128.652947993247
 30
0
 11
15.50336292115174
 21
128.652947993247
 31
0
  0
LINE
  8
1
 62
7
 10
-77.26822439253985
 20
152.652947993247
 30
0
 11
15.50336292115168
 21
152.652947993247
 31
0
  0
LINE
  8
1
 62
7
 10
-76.91557043112292
 20
154.652947993247
 30
0
 11
18.50336292115173
 21
154.652947993247
 31
0
  0
LINE
  8
1
 62
7
 10
-76.562916469706
 20
156.652947993247
 30
0
 11
18.50336292115175
 21
156.652947993247
 31
0
  0
LINE
  8
1
 62
7
 10
-76.21026250828906
 20
158.652947993247
 30
0
 11
15.5033629211517
 21
158.652947993247
 31
0
  0
LINE
  8
1
 62
7
 10
-71.9784149712859
 20
182.652947993247
 30
0
 11
15.50336292115174
 21
182.652947993247
 31
0
  0
LINE
  8
1
 62
7
 10
-71.62576100986897
 20
184.652947993247
 30
0
 11
18.50336292115173
 21
184.652947993247
 31
0
  0
LINE
  8
1
 62
3
  6
DIVIDE
 10
-70.54041759356797
 20
190.8082363781566
 30
0
 11
-83.07973364521793
 21
119.6942412239938
 31
0
  0
LINE
  8
1
 62
3
  6
DIVIDE
 10
-74.54041759356797
 20
190.8082363781566
 30
0
 11
-87.07973364521793
 21
119.6942412239938
 31
0
  0
LINE
  8
1
 62
7
 10
71.53873146783951
 20
158.7996820785709
 30
0
 11
73.68546555316331
 21
156.652947993247
 31
0
  0
LINE
  8
1
 62
7
 10
60.86163689001015
 20
152.506213907923
 30
0
 11
58.71490280468622
 21
154.652947993247
 31
0
  0
LINE
  8
1
 62
7
 10
70.09981972577702
 20
153.0542722209948
 30
0
 11
73.69198052559631
 21
156.6464330208141
 31
0
  0
LINE
  8
1
 62
7
 10
71.53873146783941
 20
152.506213907923
 30
0
 11
73.68546555316341
 21
154.652947993247
 31
0
  0
LINE
  8
1
 62
7
 10
62.30054863207258
 20
158.2516237654991
 30
0
 11
58.70838783225334
 21
154.6594629656799
 31
0
  0
LINE
  8
1
 62
7
 10
62.10814154872091
 20
158.3137751233746
 30
0
 11
58.70838783225334
 21
154.914021406907
 31
0
  0
LINE
  8
1
 62
7
 10
61.08272123715959
 20
158.7025683741864
 30
0
 11
58.72252996787709
 21
156.3423771049038
 31
0
  0
LINE
  8
1
 62
7
 10
60.93495391786709
 20
158.7669330892498
 30
0
 11
58.72252996787709
 21
156.5545091392598
 31
0
  0
LINE
  8
1
 62
7
 10
60.86163689001009
 20
158.7996820785709
 30
0
 11
58.71490280468619
 21
156.652947993247
 31
0
  0
LINE
  8
1
 62
7
 10
73.67783838997251
 20
154.9635188815901
 30
0
 11
71.31764712069001
 21
152.6033276123076
 31
0
  0
LINE
  8
1
 62
7
 10
73.67783838997251
 20
154.7513868472341
 30
0
 11
73.67783838997251
 21
154.9635188815901
 31
0
  0
LINE
  8
1
 62
7
 10
58.72252996787709
 20
156.3423771049038
 30
0
 11
58.72252996787709
 21
156.5545091392598
 31
0
  0
LINE
  8
1
 62
7
 10
73.69198052559631
 20
156.3918745795869
 30
0
 11
73.69198052559631
 21
156.6464330208141
 31
0
  0
LINE
  8
1
 62
7
 10
58.70838783225334
 20
154.6594629656799
 30
0
 11
58.70838783225334
 21
154.914021406907
 31
0
  0
LINE
  8
1
 62
7
 10
58.70838783225334
 20
154.6594629656799
 30
0
 11
58.71490280468622
 21
154.652947993247
 31
0
  0
LINE
  8
1
 62
7
 10
73.69198052559631
 20
156.3918745795869
 30
0
 11
70.29222680912871
 21
152.9921208631193
 31
0
  0
LINE
  8
1
 62
7
 10
73.68546555316331
 20
156.652947993247
 30
0
 11
73.69198052559631
 21
156.6464330208141
 31
0
  0
LINE
  8
1
 62
7
 10
73.67783838997251
 20
154.7513868472341
 30
0
 11
71.46541443998251
 21
152.5389628972441
 31
0
  0
LINE
  8
1
 62
7
 10
72.97073160878601
 20
155.6706256627766
 30
0
 11
73.67783838997251
 21
154.9635188815901
 31
0
  0
LINE
  8
1
 62
7
 10
58.72252996787709
 20
156.3423771049038
 30
0
 11
59.42963674906362
 21
155.6352703237173
 31
0
  0
LINE
  8
1
 62
7
 10
111.2274859307352
 20
163.1306022042947
 30
0
 11
104.4392608313443
 21
156.3423771049038
 31
0
  0
LINE
  8
1
 62
7
 10
119.3945692534397
 20
154.9635188815901
 30
0
 11
112.6063441540489
 21
148.1752937821993
 31
0
  0
LINE
  8
1
 62
7
 10
112.6063441540489
 20
148.1752937821993
 30
0
 11
112.8184761884049
 21
148.1752937821993
 31
0
  0
LINE
  8
1
 62
7
 10
119.3945692534397
 20
154.7513868472341
 30
0
 11
119.3945692534397
 21
154.9635188815901
 31
0
  0
LINE
  8
1
 62
7
 10
111.0153538963792
 20
163.1306022042947
 30
0
 11
111.2274859307352
 21
163.1306022042947
 31
0
  0
LINE
  8
1
 62
7
 10
104.4392608313443
 20
156.3423771049038
 30
0
 11
104.4392608313443
 21
156.5545091392598
 31
0
  0
LINE
  8
1
 62
7
 10
112.9104000699591
 20
163.1447443399184
 30
0
 11
104.4251186957206
 21
154.6594629656799
 31
0
  0
LINE
  8
1
 62
7
 10
110.9234300148249
 20
148.1611516465755
 30
0
 11
119.4087113890635
 21
156.6464330208141
 31
0
  0
LINE
  8
1
 62
7
 10
110.9234300148249
 20
148.1611516465755
 30
0
 11
111.1779884560521
 21
148.1611516465755
 31
0
  0
LINE
  8
1
 62
7
 10
119.4087113890635
 20
156.3918745795869
 30
0
 11
119.4087113890635
 21
156.6464330208141
 31
0
  0
LINE
  8
1
 62
7
 10
112.655841628732
 20
163.1447443399184
 30
0
 11
112.9104000699591
 21
163.1447443399184
 31
0
  0
LINE
  8
1
 62
7
 10
104.4251186957206
 20
154.6594629656799
 30
0
 11
104.4251186957206
 21
154.914021406907
 31
0
  0
LINE
  8
1
 62
7
 10
104.4251186957206
 20
154.6594629656799
 30
0
 11
104.4316336681534
 21
154.652947993247
 31
0
  0
LINE
  8
1
 62
7
 10
112.655841628732
 20
163.1447443399184
 30
0
 11
104.4251186957206
 21
154.914021406907
 31
0
  0
LINE
  8
1
 62
7
 10
113.166915042392
 20
162.8882293674856
 30
0
 11
112.9104000699591
 21
163.1447443399184
 31
0
  0
LINE
  8
1
 62
7
 10
110.9234300148249
 20
148.1611516465755
 30
0
 11
110.666915042392
 21
148.4176666190084
 31
0
  0
LINE
  8
1
 62
7
 10
119.4087113890635
 20
156.3918745795869
 30
0
 11
111.1779884560521
 21
148.1611516465755
 31
0
  0
LINE
  8
1
 62
7
 10
119.4021964166306
 20
156.652947993247
 30
0
 11
119.4087113890635
 21
156.6464330208141
 31
0
  0
LINE
  8
1
 62
7
 10
112.6063441540489
 20
148.1752937821993
 30
0
 11
111.8992373728624
 21
148.8824005633858
 31
0
  0
LINE
  8
1
 62
7
 10
119.3945692534397
 20
154.7513868472341
 30
0
 11
112.8184761884049
 21
148.1752937821993
 31
0
  0
LINE
  8
1
 62
7
 10
118.6874624722532
 20
155.6706256627766
 30
0
 11
119.3945692534397
 21
154.9635188815901
 31
0
  0
LINE
  8
1
 62
7
 10
104.4392608313443
 20
156.3423771049038
 30
0
 11
105.1463676125308
 21
155.6352703237173
 31
0
  0
LINE
  8
1
 62
7
 10
111.0153538963792
 20
163.1306022042947
 30
0
 11
104.4392608313443
 21
156.5545091392598
 31
0
  0
LINE
  8
1
 62
7
 10
111.9345927119217
 20
162.4234954231082
 30
0
 11
111.2274859307352
 21
163.1306022042947
 31
0
  0
LINE
  8
1
 62
7
 10
125.916915042392
 20
158.652947993247
 30
0
 11
125.916915042392
 21
182.652947993247
 31
0
  0
LINE
  8
1
 62
7
 10
123.916915042392
 20
184.652947993247
 30
0
 11
99.91691504239201
 21
184.652947993247
 31
0
  0
LINE
  8
1
 62
7
 10
104.4316336681534
 20
156.652947993247
 30
0
 11
99.91691504239201
 21
156.652947993247
 31
0
  0
LINE
  8
1
 62
7
 10
119.4021964166306
 20
156.652947993247
 30
0
 11
123.916915042392
 21
156.652947993247
 31
0
  0
LINE
  8
1
 62
7
 10
111.916915042392
 20
164.1382293674856
 30
0
 11
104.4316336681534
 21
156.652947993247
 31
0
  0
LINE
  8
1
 62
7
 10
111.916915042392
 20
164.1382293674856
 30
0
 11
119.4021964166306
 21
156.652947993247
 31
0
  0
LINE
  8
1
 62
7
 10
123.916915042392
 20
156.652947993247
 30
0
 11
125.916915042392
 21
158.652947993247
 31
0
  0
LINE
  8
1
 62
7
 10
123.916915042392
 20
184.652947993247
 30
0
 11
125.916915042392
 21
182.652947993247
 31
0
  0
LINE
  8
1
 62
7
 10
97.91691504239201
 20
182.652947993247
 30
0
 11
99.91691504239201
 21
184.652947993247
 31
0
  0
LINE
  8
1
 62
7
 10
99.91691504239201
 20
156.652947993247
 30
0
 11
97.91691504239201
 21
158.652947993247
 31
0
  0
LINE
  8
1
 62
7
 10
125.916915042392
 20
165.902947993247
 30
0
 11
117.716915042392
 21
165.902947993247
 31
0
  0
LINE
  8
1
 62
7
 10
117.716915042392
 20
165.902947993247
 30
0
 11
117.716915042392
 21
179.402947993247
 31
0
  0
LINE
  8
1
 62
7
 10
117.716915042392
 20
179.402947993247
 30
0
 11
125.916915042392
 21
179.402947993247
 31
0
  0
LINE
  8
1
 62
3
 10
117.716915042392
 20
177.652947993247
 30
0
 11
97.91691504239201
 21
177.652947993247
 31
0
  0
LINE
  8
1
 62
3
 10
117.716915042392
 20
167.652947993247
 30
0
 11
97.91691504239201
 21
167.652947993247
 31
0
  0
LINE
  8
1
 62
7
 10
97.91691504239201
 20
158.652947993247
 30
0
 11
97.91691504239201
 21
182.652947993247
 31
0
  0
LINE
  8
1
 62
3
  6
CENTER
 10
128.1963933958039
 20
172.652947993247
 30
0
 11
93.95691504239203
 21
172.652947993247
 31
0
  0
LINE
  8
1
 62
7
 10
117.716915042392
 20
176.652947993247
 30
0
 11
97.91691504239201
 21
176.652947993247
 31
0
  0
LINE
  8
1
 62
7
 10
117.716915042392
 20
168.652947993247
 30
0
 11
97.91691504239201
 21
168.652947993247
 31
0
  0
LINE
  8
1
 62
3
  6
CENTER
 10
121.516915042392
 20
155.652947993247
 30
0
 11
102.316915042392
 21
155.652947993247
 31
0
  0
LINE
  8
1
 62
3
  6
CENTER
 10
111.916915042392
 20
165.252947993247
 30
0
 11
111.916915042392
 21
123.5958760933704
 31
0
  0
LINE
  8
1
 62
7
 10
97.91691504239201
 20
152.652947993247
 30
0
 11
97.91691504239201
 21
128.652947993247
 31
0
  0
LINE
  8
1
 62
7
 10
99.91691504239201
 20
126.652947993247
 30
0
 11
123.916915042392
 21
126.652947993247
 31
0
  0
LINE
  8
1
 62
7
 10
119.4021964166306
 20
154.652947993247
 30
0
 11
123.916915042392
 21
154.652947993247
 31
0
  0
LINE
  8
1
 62
7
 10
104.4316336681534
 20
154.652947993247
 30
0
 11
99.91691504239201
 21
154.652947993247
 31
0
  0
LINE
  8
1
 62
7
 10
111.916915042392
 20
147.1676666190084
 30
0
 11
119.4021964166306
 21
154.652947993247
 31
0
  0
LINE
  8
1
 62
7
 10
111.916915042392
 20
147.1676666190084
 30
0
 11
104.4316336681534
 21
154.652947993247
 31
0
  0
LINE
  8
1
 62
7
 10
99.91691504239201
 20
154.652947993247
 30
0
 11
97.91691504239201
 21
152.652947993247
 31
0
  0
LINE
  8
1
 62
7
 10
99.91691504239201
 20
126.652947993247
 30
0
 11
97.91691504239201
 21
128.652947993247
 31
0
  0
LINE
  8
1
 62
7
 10
125.916915042392
 20
128.652947993247
 30
0
 11
123.916915042392
 21
126.652947993247
 31
0
  0
LINE
  8
1
 62
7
 10
123.916915042392
 20
154.652947993247
 30
0
 11
125.916915042392
 21
152.652947993247
 31
0
  0
LINE
  8
1
 62
7
 10
97.91691504239201
 20
145.402947993247
 30
0
 11
106.116915042392
 21
145.402947993247
 31
0
  0
LINE
  8
1
 62
7
 10
106.116915042392
 20
145.402947993247
 30
0
 11
106.116915042392
 21
131.902947993247
 31
0
  0
LINE
  8
1
 62
7
 10
106.116915042392
 20
131.902947993247
 30
0
 11
97.91691504239201
 21
131.902947993247
 31
0
  0
LINE
  8
1
 62
3
 10
106.116915042392
 20
133.652947993247
 30
0
 11
125.916915042392
 21
133.652947993247
 31
0
  0
LINE
  8
1
 62
3
 10
106.116915042392
 20
143.652947993247
 30
0
 11
125.916915042392
 21
143.652947993247
 31
0
  0
LINE
  8
1
 62
7
 10
125.916915042392
 20
152.652947993247
 30
0
 11
125.916915042392
 21
128.652947993247
 31
0
  0
LINE
  8
1
 62
3
  6
CENTER
 10
95.63743668898012
 20
138.652947993247
 30
0
 11
129.876915042392
 21
138.652947993247
 31
0
  0
LINE
  8
1
 62
7
 10
106.116915042392
 20
134.652947993247
 30
0
 11
125.916915042392
 21
134.652947993247
 31
0
  0
LINE
  8
1
 62
7
 10
106.116915042392
 20
142.652947993247
 30
0
 11
125.916915042392
 21
142.652947993247
 31
0
  0
LINE
  8
1
 62
7
 10
-274.4966370788483
 20
128.652947993247
 30
0
 11
-85.500071929543
 21
128.652947993247
 31
0
  0
LINE
  8
1
 62
7
 10
-274.4966370788482
 20
158.652947993247
 30
0
 11
-80.21026250828906
 21
158.652947993247
 31
0
  0
LINE
  8
1
 62
3
  6
CENTER
 10
-29.49663707884832
 20
149.452947993247
 30
0
 11
-29.49663707884832
 21
127.852947993247
 31
0
  0
LINE
  8
1
 62
3
  6
CENTER
 10
-18.69663707884831
 20
138.652947993247
 30
0
 11
-40.29663707884835
 21
138.652947993247
 31
0
  0
LINE
  8
1
 62
7
 10
66.95018417892477
 20
153.6312953456644
 30
0
 11
66.95018417892477
 21
127.6746006408296
 31
0
  0
LINE
  8
1
 62
7
 10
65.45018417892486
 20
127.6746006408295
 30
0
 11
65.4501841789248
 21
153.6312953456644
 31
0
  0
LINE
  8
1
 62
7
 10
66.95018417892486
 20
157.6746006408296
 30
0
 11
66.9501841789248
 21
183.6312953456644
 31
0
  0
LINE
  8
1
 62
7
 10
65.45018417892483
 20
183.6312953456644
 30
0
 11
65.45018417892474
 21
157.6746006408295
 31
0
  0
LINE
  8
1
 62
7
 10
-282.2966370788482
 20
153.652947993247
 30
0
 11
-282.2966370788482
 21
127.652947993247
 31
0
  0
LINE
  8
1
 62
7
 10
-282.2966370788483
 20
183.652947993247
 30
0
 11
-282.2966370788483
 21
157.652947993247
 31
0
  0
LINE
  8
1
 62
7
 10
23.3033629211517
 20
153.652947993247
 30
0
 11
23.3033629211517
 21
127.652947993247
 31
0
  0
LINE
  8
1
 62
7
 10
23.3033629211517
 20
183.652947993247
 30
0
 11
23.30336292115171
 21
157.652947993247
 31
0
  0
LINE
  8
1
 62
7
 10
24.50336292115171
 20
128.852947993247
 30
0
 11
23.3033629211517
 21
127.652947993247
 31
0
  0
LINE
  8
1
 62
7
 10
24.50336292115171
 20
152.452947993247
 30
0
 11
23.3033629211517
 21
153.652947993247
 31
0
  0
LINE
  8
1
 62
7
 10
24.50336292115171
 20
158.852947993247
 30
0
 11
23.30336292115171
 21
157.652947993247
 31
0
  0
LINE
  8
1
 62
7
 10
24.50336292115171
 20
182.452947993247
 30
0
 11
23.3033629211517
 21
183.652947993247
 31
0
  0
LINE
  8
1
 62
7
 10
-283.4966370788483
 20
128.852947993247
 30
0
 11
-282.2966370788482
 21
127.652947993247
 31
0
  0
LINE
  8
1
 62
7
 10
-283.4966370788483
 20
152.452947993247
 30
0
 11
-282.2966370788482
 21
153.652947993247
 31
0
  0
LINE
  8
1
 62
7
 10
-283.4966370788483
 20
158.852947993247
 30
0
 11
-282.2966370788483
 21
157.652947993247
 31
0
  0
LINE
  8
1
 62
7
 10
-283.4966370788483
 20
182.452947993247
 30
0
 11
-282.2966370788483
 21
183.652947993247
 31
0
  0
LINE
  8
1
 62
7
 10
-283.4966370788483
 20
128.852947993247
 30
0
 11
-283.4966370788483
 21
152.452947993247
 31
0
  0
LINE
  8
1
 62
7
 10
-279.4966370788483
 20
127.652947993247
 30
0
 11
-282.2966370788482
 21
127.652947993247
 31
0
  0
LINE
  8
1
 62
7
 10
-279.4966370788483
 20
153.652947993247
 30
0
 11
-279.4966370788483
 21
127.652947993247
 31
0
  0
LINE
  8
1
 62
7
 10
-282.2966370788482
 20
153.652947993247
 30
0
 11
-279.4966370788483
 21
153.652947993247
 31
0
  0
LINE
  8
1
 62
7
 10
-283.4966370788483
 20
158.852947993247
 30
0
 11
-283.4966370788483
 21
182.452947993247
 31
0
  0
LINE
  8
1
 62
7
 10
-279.4966370788483
 20
157.652947993247
 30
0
 11
-282.2966370788483
 21
157.652947993247
 31
0
  0
LINE
  8
1
 62
7
 10
-279.4966370788483
 20
183.652947993247
 30
0
 11
-279.4966370788483
 21
157.652947993247
 31
0
  0
LINE
  8
1
 62
7
 10
-282.2966370788483
 20
183.652947993247
 30
0
 11
-279.4966370788483
 21
183.652947993247
 31
0
  0
LINE
  8
1
 62
7
 10
24.50336292115171
 20
128.852947993247
 30
0
 11
24.50336292115171
 21
152.452947993247
 31
0
  0
LINE
  8
1
 62
7
 10
20.50336292115171
 20
127.652947993247
 30
0
 11
23.3033629211517
 21
127.652947993247
 31
0
  0
LINE
  8
1
 62
7
 10
20.50336292115171
 20
153.652947993247
 30
0
 11
20.50336292115171
 21
127.652947993247
 31
0
  0
LINE
  8
1
 62
7
 10
23.3033629211517
 20
153.652947993247
 30
0
 11
20.50336292115171
 21
153.652947993247
 31
0
  0
LINE
  8
1
 62
7
 10
24.50336292115171
 20
158.852947993247
 30
0
 11
24.50336292115171
 21
182.452947993247
 31
0
  0
LINE
  8
1
 62
7
 10
20.50336292115172
 20
157.652947993247
 30
0
 11
23.30336292115171
 21
157.652947993247
 31
0
  0
LINE
  8
1
 62
7
 10
20.5033629211517
 20
183.652947993247
 30
0
 11
20.50336292115172
 21
157.652947993247
 31
0
  0
LINE
  8
1
 62
7
 10
23.3033629211517
 20
183.652947993247
 30
0
 11
20.5033629211517
 21
183.652947993247
 31
0
  0
LINE
  8
1
 62
7
 10
-274.4966370788483
 20
128.652947993247
 30
0
 11
-274.4966370788483
 21
126.652947993247
 31
0
  0
LINE
  8
1
 62
7
 10
-274.4966370788483
 20
152.652947993247
 30
0
 11
-274.4966370788483
 21
154.652947993247
 31
0
  0
LINE
  8
1
 62
7
 10
-274.4966370788482
 20
158.652947993247
 30
0
 11
-274.4966370788483
 21
156.652947993247
 31
0
  0
LINE
  8
1
 62
7
 10
-274.4966370788483
 20
182.652947993247
 30
0
 11
-274.4966370788483
 21
184.652947993247
 31
0
  0
LINE
  8
1
 62
7
 10
15.50336292115174
 20
128.652947993247
 30
0
 11
15.50336292115172
 21
126.652947993247
 31
0
  0
LINE
  8
1
 62
7
 10
15.50336292115168
 20
152.652947993247
 30
0
 11
15.50336292115171
 21
154.652947993247
 31
0
  0
LINE
  8
1
 62
7
 10
15.5033629211517
 20
158.652947993247
 30
0
 11
15.50336292115172
 21
156.652947993247
 31
0
  0
LINE
  8
1
 62
7
 10
15.50336292115174
 20
182.652947993247
 30
0
 11
15.50336292115171
 21
184.652947993247
 31
0
  0
LINE
  8
1
 62
7
 10
-274.4966370788483
 20
152.652947993247
 30
0
 11
-81.26822439253985
 21
152.652947993247
 31
0
  0
LINE
  8
1
 62
7
 10
-274.4966370788483
 20
182.652947993247
 30
0
 11
-75.9784149712859
 21
182.652947993247
 31
0
  0
LINE
  8
1
 62
4
  6
CENTER
 10
-283.4966370788483
 20
155.652947993247
 30
0
 11
26.54061639063428
 21
155.652947993247
 31
0
  0
LINE
  8
1
 62
7
 10
-277.4966370788483
 20
156.652947993247
 30
0
 11
-80.56291646970598
 21
156.652947993247
 31
0
  0
LINE
  8
1
 62
7
 10
-277.4966370788483
 20
126.652947993247
 30
0
 11
-85.85272589095995
 21
126.652947993247
 31
0
  0
LINE
  8
1
 62
7
 10
-277.4966370788483
 20
184.652947993247
 30
0
 11
-75.62576100986897
 21
184.652947993247
 31
0
  0
LINE
  8
1
 62
7
 10
-277.4966370788483
 20
154.652947993247
 30
0
 11
-80.9155704311229
 21
154.652947993247
 31
0
  0
LINE
  8
1
 62
7
 10
-279.4966370788483
 20
182.652947993247
 30
0
 11
-277.4966370788483
 21
184.652947993247
 31
0
  0
LINE
  8
1
 62
7
 10
-277.4966370788483
 20
156.652947993247
 30
0
 11
-279.4966370788483
 21
158.652947993247
 31
0
  0
LINE
  8
1
 62
7
 10
-279.4966370788483
 20
152.652947993247
 30
0
 11
-277.4966370788483
 21
154.652947993247
 31
0
  0
LINE
  8
1
 62
7
 10
-277.4966370788483
 20
126.652947993247
 30
0
 11
-279.4966370788483
 21
128.652947993247
 31
0
  0
LINE
  8
1
 62
7
 10
18.50336292115173
 20
126.652947993247
 30
0
 11
20.50336292115171
 21
128.652947993247
 31
0
  0
LINE
  8
1
 62
7
 10
20.50336292115171
 20
152.652947993247
 30
0
 11
18.50336292115173
 21
154.652947993247
 31
0
  0
LINE
  8
1
 62
7
 10
18.50336292115175
 20
156.652947993247
 30
0
 11
20.50336292115171
 21
158.652947993247
 31
0
  0
LINE
  8
1
 62
7
 10
20.50336292115171
 20
182.652947993247
 30
0
 11
18.50336292115173
 21
184.652947993247
 31
0
  0
LINE
  8
1
 62
3
  6
CENTER
 10
-218.6966370788483
 20
172.652947993247
 30
0
 11
-240.2966370788483
 21
172.652947993247
 31
0
  0
LINE
  8
1
 62
3
  6
CENTER
 10
-229.4966370788483
 20
183.452947993247
 30
0
 11
-229.4966370788483
 21
161.852947993247
 31
0
  0
LINE
  8
1
 62
3
  6
CENTER
 10
-218.6966370788484
 20
138.652947993247
 30
0
 11
-240.2966370788483
 21
138.652947993247
 31
0
  0
LINE
  8
1
 62
3
  6
CENTER
 10
-229.4966370788483
 20
149.452947993247
 30
0
 11
-229.4966370788483
 21
127.852947993247
 31
0
  0
LINE
  8
1
 62
3
  6
CENTER
 10
-129.4966370788483
 20
149.452947993247
 30
0
 11
-129.4966370788483
 21
127.852947993247
 31
0
  0
LINE
  8
1
 62
3
  6
CENTER
 10
-118.6966370788484
 20
138.652947993247
 30
0
 11
-140.2966370788483
 21
138.652947993247
 31
0
  0
LINE
  8
1
 62
3
  6
CENTER
 10
-129.4966370788483
 20
183.452947993247
 30
0
 11
-129.4966370788483
 21
161.852947993247
 31
0
  0
LINE
  8
1
 62
3
  6
CENTER
 10
-118.6966370788483
 20
172.652947993247
 30
0
 11
-140.2966370788483
 21
172.652947993247
 31
0
  0
LINE
  8
1
 62
3
  6
CENTER
 10
-29.49663707884829
 20
183.452947993247
 30
0
 11
-29.49663707884829
 21
161.852947993247
 31
0
  0
LINE
  8
1
 62
3
  6
CENTER
 10
-18.69663707884828
 20
172.652947993247
 30
0
 11
-40.29663707884831
 21
172.652947993247
 31
0
  0
LINE
  8
1
 62
7
 10
52.2001841789248
 20
182.652947993247
 30
0
 11
52.2001841789248
 21
158.652947993247
 31
0
  0
LINE
  8
1
 62
7
 10
54.2001841789248
 20
184.652947993247
 30
0
 11
78.2001841789248
 21
184.652947993247
 31
0
  0
LINE
  8
1
 62
7
 10
80.2001841789248
 20
182.652947993247
 30
0
 11
80.2001841789248
 21
158.652947993247
 31
0
  0
LINE
  8
1
 62
7
 10
52.2001841789248
 20
128.652947993247
 30
0
 11
52.2001841789248
 21
152.652947993247
 31
0
  0
LINE
  8
1
 62
7
 10
54.2001841789248
 20
126.652947993247
 30
0
 11
78.2001841789248
 21
126.652947993247
 31
0
  0
LINE
  8
1
 62
7
 10
80.2001841789248
 20
128.652947993247
 30
0
 11
80.2001841789248
 21
152.652947993247
 31
0
  0
LINE
  8
1
 62
3
  6
CENTER
 10
82.08706676519101
 20
155.652947993247
 30
0
 11
50.28114097878482
 21
155.652947993247
 31
0
  0
LINE
  8
1
 62
7
 10
58.71489371547962
 20
156.652947993247
 30
0
 11
54.2001841789248
 21
156.652947993247
 31
0
  0
LINE
  8
1
 62
7
 10
73.68453723205761
 20
156.652947993247
 30
0
 11
78.2001841789248
 21
156.652947993247
 31
0
  0
LINE
  8
1
 62
7
 10
58.71397448358051
 20
154.652947993247
 30
0
 11
54.2001841789248
 21
154.652947993247
 31
0
  0
LINE
  8
1
 62
7
 10
73.68545646395681
 20
154.652947993247
 30
0
 11
78.2001841789248
 21
154.652947993247
 31
0
  0
LINE
  8
1
 62
7
 10
54.2001841789248
 20
184.652947993247
 30
0
 11
52.2001841789248
 21
182.652947993247
 31
0
  0
LINE
  8
1
 62
7
 10
80.2001841789248
 20
182.652947993247
 30
0
 11
78.2001841789248
 21
184.652947993247
 31
0
  0
LINE
  8
1
 62
7
 10
54.2001841789248
 20
126.652947993247
 30
0
 11
52.2001841789248
 21
128.652947993247
 31
0
  0
LINE
  8
1
 62
7
 10
80.2001841789248
 20
128.652947993247
 30
0
 11
78.2001841789248
 21
126.652947993247
 31
0
  0
LINE
  8
1
 62
7
 10
54.2001841789248
 20
154.652947993247
 30
0
 11
52.2001841789248
 21
152.652947993247
 31
0
  0
LINE
  8
1
 62
7
 10
54.2001841789248
 20
156.652947993247
 30
0
 11
52.2001841789248
 21
158.652947993247
 31
0
  0
LINE
  8
1
 62
7
 10
78.2001841789248
 20
156.652947993247
 30
0
 11
80.2001841789248
 21
158.652947993247
 31
0
  0
LINE
  8
1
 62
7
 10
78.2001841789248
 20
154.652947993247
 30
0
 11
80.2001841789248
 21
152.652947993247
 31
0
  0
ARC
  8
1
 62
7
 10
66.2001841789248
 20
140.652947993247
 30
0
 40
11.80000000000008
 50
273.6441373055022
 51
86.35586269449752
  0
ARC
  8
1
 62
7
 10
66.2001841789248
 20
140.652947993247
 30
0
 40
11.79999999999986
 50
93.64413730550251
 51
266.3558626944977
  0
ARC
  8
1
 62
7
 10
66.2001841789248
 20
170.652947993247
 30
0
 40
11.80000000000008
 50
273.6441373055023
 51
86.35586269449739
  0
ARC
  8
1
 62
7
 10
66.2001841789248
 20
170.652947993247
 30
0
 40
11.79999999999994
 50
93.64413730550234
 51
266.3558626944974
  0
ARC
  8
1
 62
7
 10
-246.9466370788483
 20
140.652947993247
 30
0
 40
30.05000000000002
 50
156.4634221359587
 51
203.5365778640413
  0
ARC
  8
1
 62
7
 10
-246.9466370788483
 20
170.652947993247
 30
0
 40
30.05000000000002
 50
156.4634221359587
 51
203.5365778640414
  0
ARC
  8
1
 62
7
 10
-12.04663707884828
 20
140.652947993247
 30
0
 40
30.05000000000002
 50
336.4634221359587
 51
23.53657786404132
  0
ARC
  8
1
 62
7
 10
-12.04663707884833
 20
170.652947993247
 30
0
 40
30.05000000000003
 50
336.4634221359587
 51
23.53657786404124
  0
CIRCLE
  8
1
 62
7
 10
-29.49663707884832
 20
138.652947993247
 30
0
 40
6.750000000000004
  0
CIRCLE
  8
1
 62
3
 10
-29.49663707884832
 20
138.652947993247
 30
0
 40
5.000000000000004
  0
CIRCLE
  8
1
 62
7
 10
-29.49663707884832
 20
138.652947993247
 30
0
 40
4.000000000000004
  0
CIRCLE
  8
1
 62
7
 10
66.2001841789248
 20
170.652947993247
 30
0
 40
13.00000000000003
  0
CIRCLE
  8
1
 62
7
 10
66.2001841789248
 20
140.652947993247
 30
0
 40
12.99999999999997
  0
CIRCLE
  8
1
 62
7
 10
-229.4966370788483
 20
172.652947993247
 30
0
 40
4
  0
CIRCLE
  8
1
 62
3
 10
-229.4966370788483
 20
172.652947993247
 30
0
 40
5
  0
CIRCLE
  8
1
 62
7
 10
-229.4966370788483
 20
138.652947993247
 30
0
 40
4
  0
CIRCLE
  8
1
 62
3
 10
-229.4966370788483
 20
138.652947993247
 30
0
 40
5
  0
CIRCLE
  8
1
 62
7
  6
DASHED
 10
-229.4966370788483
 20
172.652947993247
 30
0
 40
6.75
  0
CIRCLE
  8
1
 62
7
 10
-229.4966370788483
 20
138.652947993247
 30
0
 40
6.750000000000114
  0
CIRCLE
  8
1
 62
7
 10
-129.4966370788483
 20
138.652947993247
 30
0
 40
6.75
  0
CIRCLE
  8
1
 62
7
  6
DASHED
 10
-129.4966370788483
 20
172.652947993247
 30
0
 40
6.75
  0
CIRCLE
  8
1
 62
3
 10
-129.4966370788483
 20
138.652947993247
 30
0
 40
5
  0
CIRCLE
  8
1
 62
7
 10
-129.4966370788483
 20
138.652947993247
 30
0
 40
4
  0
CIRCLE
  8
1
 62
3
 10
-129.4966370788483
 20
172.652947993247
 30
0
 40
5
  0
CIRCLE
  8
1
 62
7
 10
-129.4966370788483
 20
172.652947993247
 30
0
 40
4
  0
CIRCLE
  8
1
 62
7
  6
DASHED
 10
-29.49663707884829
 20
172.652947993247
 30
0
 40
6.749999999999996
  0
CIRCLE
  8
1
 62
3
 10
-29.49663707884829
 20
172.652947993247
 30
0
 40
4.999999999999996
  0
CIRCLE
  8
1
 62
7
 10
-29.49663707884829
 20
172.652947993247
 30
0
 40
3.999999999999996
  0
TEXT
  8
1
 62
2
 10
49.4294732175026
 20
67.3963821853925
 30
0
 40
5
  1
UNION TOOL CO.
 41
0.7200000000000001
  7
COMPLEX
  0
TEXT
  8
1
 62
2
 10
-277.052635070086
 20
214.705848301009
 30
0
 40
5
  1
MODEL : G12
 41
0.7200000000000001
  7
COMPLEX
  0
ENDSEC
  0
EOF
