  0
SECTION
  2
HEADER
  9
$ACADVER
  1
AC1009
  9
$INSBASE
 10
0
 20
0
  9
$EXTMIN
 10
103.093690821375
 20
49.8642254986325
  9
$EXTMAX
 10
176.980496183133
 20
99.9371511310794
  9
$LIMMIN
 10
103.093690821375
 20
49.8642254986325
  9
$LIMMAX
 10
176.980496183133
 20
99.9371511310794
  9
$VIEWCTR
 10
10
 20
10
  9
$VIEWSIZE
 40
10
  9
$SNAPMODE
 70
0
  9
$SNAPUNIT
 10
1
 20
1
  9
$SNAPBASE
 10
0
 20
0
  9
$SNAPANG
 50
0
  9
$SNAPSTYLE
 70
0
  9
$SNAPISOPAIR
 70
0
  9
$GRIDMODE
 70
0
  9
$GRIDUNIT
 10
0
 20
0
  9
$ORTHOMODE
 70
0
  9
$REGENMODE
 70
1
  9
$FILLMODE
 70
1
  9
$QTEXTMODE
 70
0
  9
$DRAGMODE
 70
2
  9
$LTSCALE
 40
1
  9
$OSMODE
 70
0
  9
$ATTMODE
 70
1
  9
$TEXTSIZE
 40
3.5
  9
$TRACEWID
 40
0.5
  9
$TEXTSTYLE
  7
STANDARD
  9
$CLAYER
  8
0
  9
$CELTYPE
  6
BYLAYER
  9
$CECOLOR
 62
256
  9
$DIMSCALE
 40
1
  9
$DIMASZ
 40
0.18
  9
$DIMEXO
 40
0.0625
  9
$DIMDLI
 40
0.38
  9
$DIMRND
 40
0
  9
$DIMDLE
 40
0
  9
$DIMEXE
 40
0.18
  9
$DIMTP
 40
0
  9
$DIMTM
 40
0
  9
$DIMTXT
 40
0.18
  9
$DIMCEN
 40
0.09
  9
$DIMTSZ
 40
0
  9
$DIMTOL
 70
0
  9
$DIMLIM
 70
0
  9
$DIMTIH
 70
1
  9
$DIMTOH
 70
1
  9
$DIMSE1
 70
0
  9
$DIMSE2
 70
0
  9
$DIMTAD
 70
0
  9
$DIMZIN
 70
0
  9
$DIMBLK
  1

  9
$DIMASO
 70
1
  9
$DIMSHO
 70
1
  9
$DIMPOST
  1

  9
$DIMAPOST
  1

  9
$DIMALT
 70
0
  9
$DIMALTD
 70
2
  9
$DIMALTF
 40
25.4
  9
$DIMLFAC
 40
1
  9
$DIMTOFL
 70
0
  9
$DIMTVP
 40
0
  9
$DIMTIX
 70
0
  9
$DIMSOXD
 70
0
  9
$DIMSAH
 70
0
  9
$DIMBLK1
  1

  9
$DIMBLK2
  1

  9
$DIMSTYLE
  2
*UNNAMED
  9
$DIMCLRD
 70
0
  9
$DIMCLRE
 70
0
  9
$DIMCLRT
 70
0
  9
$DIMTFAC
 40
1
  9
$DIMGAP
 40
0.09
  9
$LUNITS
 70
2
  9
$LUPREC
 70
4
  9
$AXISMODE
 70
0
  9
$AXISUNIT
 10
0
 20
0
  9
$SKETCHINC
 40
0.1
  9
$FILLETRAD
 40
2
  9
$AUNITS
 70
0
  9
$AUPREC
 70
0
  9
$MENU
  1
ACAD
  9
$ELEVATION
 40
0
  9
$THICKNESS
 40
0
  9
$VIEWDIR
 10
0
 20
0
 30
1
  9
$LIMCHECK
 70
0
  9
$BLIPMODE
 70
1
  9
$CHAMFERA
 40
0
  9
$CHAMFERB
 40
0
  9
$FASTZOOM
 70
1
  9
$SKPOLY
 70
0
  9
$ANGBASE
 50
0
  9
$ANGDIR
 70
0
  9
$PDMODE
 70
0
  9
$PDSIZE
 40
0
  9
$PLINEWID
 40
0
  9
$COORDS
 70
2
  0
ENDSEC
  0
SECTION
  2
TABLES
  0
TABLE
  2
DIMSTYLE
 70
0
  0
ENDTAB
  0
TABLE
  2
LTYPE
 70
9
  0
LTYPE
  2
CONTINUOUS
 70
64
  3
Solid line
 72
65
 73
0
 40
0
  0
LTYPE
  2
BORDER
 70
64
  3
__ __ . __ __ .
 72
65
 73
6
 40
3.402681825870434
 49
0.9721948073915525
 49
-0.4860974036957763
 49
0.9721948073915525
 49
-0.4860974036957763
 49
0
 49
-0.4860974036957763
  0
LTYPE
  2
CENTER
 70
64
  3
____ _ ____ _
 72
65
 73
4
 40
3.88877922956621
 49
2.430487018478881
 49
-0.4860974036957763
 49
0.4860974036957763
 49
-0.4860974036957763
  0
LTYPE
  2
DASHDOT
 70
64
  3
__ . __ . __ .
 72
65
 73
4
 40
1.944389614783105
 49
0.9721948073915525
 49
-0.4860974036957763
 49
0
 49
-0.4860974036957763
  0
LTYPE
  2
DASHED
 70
64
  3
__ __ __ __ __
 72
65
 73
2
 40
1.458292211087329
 49
0.9721948073915525
 49
-0.4860974036957763
  0
LTYPE
  2
DIVIDE
 70
64
  3
__ . . __ . . 
 72
65
 73
6
 40
2.430487018478881
 49
0.9721948073915525
 49
-0.4860974036957763
 49
0
 49
-0.4860974036957763
 49
0
 49
-0.4860974036957763
  0
LTYPE
  2
DOT
 70
64
  3
..............
 72
65
 73
4
 40
0.9721948073915525
 49
0
 49
-0.4860974036957763
 49
0
 49
-0.4860974036957763
  0
LTYPE
  2
HIDDEN
 70
64
  3
_ _ _ _ _ _ _
 72
65
 73
2
 40
0.7291461055436643
 49
0.4860974036957763
 49
-0.2430487018478881
  0
LTYPE
  2
PHANTOM
 70
64
  3
_____ _ _ _____ _ _ 
 72
65
 73
6
 40
4.860974036957763
 49
2.430487018478881
 49
-0.4860974036957763
 49
0.4860974036957763
 49
-0.4860974036957763
 49
0.4860974036957763
 49
-0.4860974036957763
  0
ENDTAB
  0
TABLE
  2
LAYER
 70
3
  0
LAYER
  2
1
 70
0
 62
7
  6
CONTINUOUS
  0
LAYER
  2
0
 70
0
 62
7
  6
CONTINUOUS
  0
ENDTAB
  0
TABLE
  2
STYLE
 70
4
  0
STYLE
  2
STANDARD
 70
0
 40
0
 41
1
 50
0
 71
0
 42
3.5
  3
txt
  4

  0
STYLE
  2
SIMPLEX
 70
0
 40
0
 41
1
 50
0
 71
0
 42
3.5
  3
simplex
  4

  0
STYLE
  2
COMPLEX
 70
0
 40
0
 41
1
 50
0
 71
0
 42
3.5
  3
complex
  4

  0
STYLE
  2
ITALIC
 70
0
 40
0
 41
1
 50
0
 71
0
 42
3.5
  3
italic
  4

  0
ENDTAB
  0
TABLE
  2
VIEW
 70
0
  0
ENDTAB
  0
ENDSEC
  0
SECTION
  2
BLOCKS
  0
ENDSEC
  0
SECTION
  2
ENTITIES
  0
POINT
  8
1
 62
7
  6
CENTER
 10
153.684828254077
 20
74.9798915355963
 30
0
  0
POINT
  8
1
 62
7
  6
CENTER
 10
153.684828254077
 20
74.9798915355963
 30
0
  0
POINT
  8
1
 62
7
  6
CENTER
 10
153.684828254077
 20
74.9798915355963
 30
0
  0
POINT
  8
1
 62
7
  6
CENTER
 10
153.684828254077
 20
74.9798915355963
 30
0
  0
POINT
  8
1
 62
7
  6
CENTER
 10
153.684828254077
 20
74.9798915355963
 30
0
  0
POINT
  8
1
 62
7
  6
CENTER
 10
153.684828254077
 20
74.9798915355963
 30
0
  0
POINT
  8
1
 62
7
  6
CENTER
 10
154.2848282540771
 20
74.9798915355963
 30
0
  0
POINT
  8
1
 62
7
  6
CENTER
 10
154.2848282540771
 20
74.9798915355963
 30
0
  0
POINT
  8
1
 62
7
  6
CENTER
 10
154.2848282540771
 20
74.9798915355963
 30
0
  0
POINT
  8
1
 62
7
  6
CENTER
 10
154.2848282540771
 20
74.9798915355963
 30
0
  0
POINT
  8
1
 62
7
  6
CENTER
 10
155.684828254077
 20
75.87989153559632
 30
0
  0
POINT
  8
1
 62
7
  6
CENTER
 10
146.858398128266
 20
76.57989153559629
 30
0
  0
POINT
  8
1
 62
7
  6
CENTER
 10
146.858398128266
 20
75.8798915355963
 30
0
  0
POINT
  8
1
 62
7
  6
CENTER
 10
154.284828254077
 20
77.47929699075986
 30
0
  0
POINT
  8
1
 62
7
  6
CENTER
 10
154.284828254077
 20
77.47929699075986
 30
0
  0
POINT
  8
1
 62
7
  6
CENTER
 10
154.284828254077
 20
77.47929699075986
 30
0
  0
POINT
  8
1
 62
7
  6
CENTER
 10
154.284828254077
 20
77.47929699075986
 30
0
  0
POINT
  8
1
 62
7
  6
CENTER
 10
154.284828254077
 20
77.47929699075986
 30
0
  0
POINT
  8
1
 62
7
  6
CENTER
 10
154.284828254077
 20
77.47929699075986
 30
0
  0
POINT
  8
1
 62
7
  6
CENTER
 10
153.6848282540769
 20
77.47929699075986
 30
0
  0
POINT
  8
1
 62
7
  6
CENTER
 10
153.6848282540769
 20
77.47929699075986
 30
0
  0
POINT
  8
1
 62
7
  6
CENTER
 10
153.6848282540769
 20
77.47929699075986
 30
0
  0
POINT
  8
1
 62
7
  6
CENTER
 10
153.6848282540769
 20
77.47929699075986
 30
0
  0
LINE
  8
1
 62
7
 10
144.258398128266
 20
73.74654188613751
 30
0
 11
144.258398128266
 21
74.21324118505505
 31
0
  0
LINE
  8
1
 62
7
 10
146.058398128266
 20
73.74654188613751
 30
0
 11
146.058398128266
 21
74.21324118505505
 31
0
  0
LINE
  8
1
 62
7
 10
145.3917477777248
 20
74.87989153559627
 30
0
 11
144.9250484788072
 21
74.87989153559627
 31
0
  0
LINE
  8
1
 62
7
 10
145.3917477777248
 20
73.07989153559629
 30
0
 11
144.9250484788072
 21
73.07989153559629
 31
0
  0
LINE
  8
1
 62
7
 10
144.258398128266
 20
74.21324118505505
 30
0
 11
144.5939227553113
 21
74.21909778920515
 31
0
  0
LINE
  8
1
 62
7
 10
144.9191918746571
 20
74.54436690855097
 30
0
 11
144.9250484788072
 21
74.87989153559627
 31
0
  0
LINE
  8
1
 62
7
 10
144.5939227553113
 20
74.21909778920515
 30
0
 11
144.8189868732964
 21
74.31930279056584
 31
0
  0
LINE
  8
1
 62
7
 10
144.8189868732964
 20
74.31930279056584
 30
0
 11
144.9191918746571
 21
74.54436690855097
 31
0
  0
LINE
  8
1
 62
7
 10
145.7228735012207
 20
74.21909778920515
 30
0
 11
146.058398128266
 21
74.21324118505505
 31
0
  0
LINE
  8
1
 62
7
 10
145.3917477777248
 20
74.87989153559627
 30
0
 11
145.3976043818749
 21
74.54436690855097
 31
0
  0
LINE
  8
1
 62
7
 10
145.4978093832355
 20
74.31930279056584
 30
0
 11
145.7228735012207
 21
74.21909778920515
 31
0
  0
LINE
  8
1
 62
7
 10
145.3976043818749
 20
74.54436690855097
 30
0
 11
145.4978093832355
 21
74.31930279056584
 31
0
  0
LINE
  8
1
 62
7
 10
144.5939227553113
 20
73.74068528198741
 30
0
 11
144.258398128266
 21
73.74654188613751
 31
0
  0
LINE
  8
1
 62
7
 10
144.9250484788072
 20
73.07989153559629
 30
0
 11
144.9191918746571
 21
73.41541616264159
 31
0
  0
LINE
  8
1
 62
7
 10
144.8189868732964
 20
73.64048028062675
 30
0
 11
144.5939227553113
 21
73.74068528198741
 31
0
  0
LINE
  8
1
 62
7
 10
144.9191918746571
 20
73.41541616264159
 30
0
 11
144.8189868732964
 21
73.64048028062675
 31
0
  0
LINE
  8
1
 62
7
 10
146.058398128266
 20
73.74654188613751
 30
0
 11
145.7228735012207
 21
73.74068528198741
 31
0
  0
LINE
  8
1
 62
7
 10
145.3976043818749
 20
73.41541616264159
 30
0
 11
145.3917477777248
 21
73.07989153559629
 31
0
  0
LINE
  8
1
 62
7
 10
145.7228735012207
 20
73.74068528198741
 30
0
 11
145.4978093832355
 21
73.64048028062675
 31
0
  0
LINE
  8
1
 62
7
 10
145.4978093832355
 20
73.64048028062675
 30
0
 11
145.3976043818749
 21
73.41541616264159
 31
0
  0
LINE
  8
1
 62
7
 10
144.258398128266
 20
78.24654188613754
 30
0
 11
144.258398128266
 21
78.71324118505508
 31
0
  0
LINE
  8
1
 62
7
 10
146.058398128266
 20
78.24654188613754
 30
0
 11
146.058398128266
 21
78.71324118505508
 31
0
  0
LINE
  8
1
 62
7
 10
144.9250484788072
 20
77.57989153559632
 30
0
 11
145.3917477777248
 21
77.57989153559632
 31
0
  0
LINE
  8
1
 62
7
 10
144.9250484788072
 20
79.3798915355963
 30
0
 11
145.3917477777248
 21
79.3798915355963
 31
0
  0
LINE
  8
1
 62
7
 10
144.5939227553113
 20
78.24068528198744
 30
0
 11
144.258398128266
 21
78.24654188613754
 31
0
  0
LINE
  8
1
 62
7
 10
144.9250484788072
 20
77.57989153559632
 30
0
 11
144.9191918746571
 21
77.91541616264162
 31
0
  0
LINE
  8
1
 62
7
 10
144.8189868732964
 20
78.14048028062675
 30
0
 11
144.5939227553113
 21
78.24068528198744
 31
0
  0
LINE
  8
1
 62
7
 10
144.9191918746571
 20
77.91541616264162
 30
0
 11
144.8189868732964
 21
78.14048028062675
 31
0
  0
LINE
  8
1
 62
7
 10
146.058398128266
 20
78.24654188613754
 30
0
 11
145.7228735012207
 21
78.24068528198744
 31
0
  0
LINE
  8
1
 62
7
 10
145.3976043818749
 20
77.91541616264162
 30
0
 11
145.3917477777248
 21
77.57989153559632
 31
0
  0
LINE
  8
1
 62
7
 10
145.7228735012207
 20
78.24068528198744
 30
0
 11
145.4978093832355
 21
78.14048028062675
 31
0
  0
LINE
  8
1
 62
7
 10
145.4978093832355
 20
78.14048028062675
 30
0
 11
145.3976043818749
 21
77.91541616264162
 31
0
  0
LINE
  8
1
 62
7
 10
144.258398128266
 20
78.71324118505508
 30
0
 11
144.5939227553113
 21
78.71909778920518
 31
0
  0
LINE
  8
1
 62
7
 10
144.9191918746571
 20
79.044366908551
 30
0
 11
144.9250484788072
 21
79.3798915355963
 31
0
  0
LINE
  8
1
 62
7
 10
144.5939227553113
 20
78.71909778920518
 30
0
 11
144.8189868732964
 21
78.81930279056584
 31
0
  0
LINE
  8
1
 62
7
 10
144.8189868732964
 20
78.81930279056584
 30
0
 11
144.9191918746571
 21
79.044366908551
 31
0
  0
LINE
  8
1
 62
7
 10
145.7228735012207
 20
78.71909778920518
 30
0
 11
146.058398128266
 21
78.71324118505508
 31
0
  0
LINE
  8
1
 62
7
 10
145.3917477777248
 20
79.3798915355963
 30
0
 11
145.3976043818749
 21
79.044366908551
 31
0
  0
LINE
  8
1
 62
7
 10
145.4978093832355
 20
78.81930279056584
 30
0
 11
145.7228735012207
 21
78.71909778920518
 31
0
  0
LINE
  8
1
 62
7
 10
145.3976043818749
 20
79.044366908551
 30
0
 11
145.4978093832355
 21
78.81930279056584
 31
0
  0
LINE
  8
1
 62
7
 10
107.5523749475525
 20
80.17989153559631
 30
0
 11
126.6832938869795
 21
80.17989153559631
 31
0
  0
LINE
  8
1
 62
7
 10
107.5523749475525
 20
76.87989153559627
 30
0
 11
126.1014148506415
 21
76.87989153559627
 31
0
  0
LINE
  8
1
 62
7
 10
107.5523749475525
 20
76.57989153559629
 30
0
 11
126.048516756429
 21
76.57989153559629
 31
0
  0
LINE
  8
1
 62
7
 10
107.1023749475525
 20
75.8798915355963
 30
0
 11
125.9250878699331
 21
75.8798915355963
 31
0
  0
LINE
  8
1
 62
7
 10
107.5523749475525
 20
75.57989153559632
 30
0
 11
125.8721897757205
 21
75.57989153559632
 31
0
  0
LINE
  8
1
 62
7
 10
107.1023749475525
 20
71.9798915355963
 30
0
 11
125.23741264517
 21
71.9798915355963
 31
0
  0
LINE
  8
1
 62
7
 10
107.5523749475525
 20
72.27989153559628
 30
0
 11
125.2903107393826
 21
72.27989153559628
 31
0
  0
LINE
  8
1
 62
4
  6
CENTER
 10
153.984828254077
 20
80.90106740735781
 30
0
 11
153.984828254077
 21
77.29025443495792
 31
0
  0
LINE
  8
1
 62
7
 10
151.984828254077
 20
72.27989153559629
 30
0
 11
153.384828254077
 21
72.27989153559631
 31
0
  0
LINE
  8
1
 62
3
 10
153.384828254077
 20
72.77989153559631
 30
0
 11
155.984828254077
 21
72.77989153559631
 31
0
  0
LINE
  8
1
 62
3
 10
153.384828254077
 20
74.77989153559631
 30
0
 11
155.984828254077
 21
74.77989153559631
 31
0
  0
LINE
  8
1
 62
7
 10
153.384828254077
 20
74.6048915355963
 30
0
 11
155.984828254077
 21
74.6048915355963
 31
0
  0
LINE
  8
1
 62
7
 10
153.384828254077
 20
72.27989153559631
 30
0
 11
153.384828254077
 21
75.27989153559631
 31
0
  0
LINE
  8
1
 62
7
 10
153.384828254077
 20
72.9548915355963
 30
0
 11
155.984828254077
 21
72.9548915355963
 31
0
  0
LINE
  8
1
 62
7
 10
153.384828254077
 20
75.27989153559631
 30
0
 11
151.984828254077
 21
75.27989153559631
 31
0
  0
LINE
  8
1
 62
3
  6
CENTER
 10
151.584828254077
 20
73.77989153559631
 30
0
 11
156.384828254077
 21
73.77989153559631
 31
0
  0
LINE
  8
1
 62
7
 10
151.984828254077
 20
75.57989153559632
 30
0
 11
151.984828254077
 21
72.27989153559629
 31
0
  0
LINE
  8
1
 62
7
 10
152.284828254077
 20
71.9798915355963
 30
0
 11
155.684828254077
 21
71.9798915355963
 31
0
  0
LINE
  8
1
 62
7
 10
155.984828254077
 20
75.57989153559632
 30
0
 11
155.984828254077
 21
72.27989153559629
 31
0
  0
LINE
  8
1
 62
7
 10
155.684828254077
 20
75.87989153559632
 30
0
 11
155.984828254077
 21
75.57989153559632
 31
0
  0
LINE
  8
1
 62
7
 10
152.284828254077
 20
75.87989153559632
 30
0
 11
151.984828254077
 21
75.57989153559632
 31
0
  0
LINE
  8
1
 62
7
 10
152.284828254077
 20
71.9798915355963
 30
0
 11
151.984828254077
 21
72.27989153559629
 31
0
  0
LINE
  8
1
 62
7
 10
155.984828254077
 20
72.27989153559629
 30
0
 11
155.684828254077
 21
71.9798915355963
 31
0
  0
LINE
  8
1
 62
7
 10
154.6954884258568
 20
75.87989153559632
 30
0
 11
154.2848282540771
 21
75.46923136381655
 31
0
  0
LINE
  8
1
 62
7
 10
154.6954884258568
 20
75.87989153559632
 30
0
 11
155.684828254077
 21
75.87989153559632
 31
0
  0
LINE
  8
1
 62
7
 10
153.2741680822971
 20
75.87989153559632
 30
0
 11
153.684828254077
 21
75.46923136381643
 31
0
  0
LINE
  8
1
 62
7
 10
153.2741680822971
 20
75.87989153559632
 30
0
 11
152.284828254077
 21
75.87989153559632
 31
0
  0
LINE
  8
1
 62
7
 10
146.2190583000458
 20
76.2298915355963
 30
0
 11
145.6489091636994
 21
76.80004067194264
 31
0
  0
LINE
  8
1
 62
4
  6
CENTER
 10
146.2190583000458
 20
76.2298915355963
 30
0
 11
147.5017552623001
 21
76.2298915355963
 31
0
  0
LINE
  8
1
 62
7
 10
144.0977379564862
 20
76.2298915355963
 30
0
 11
144.6678870928325
 21
75.65974239924995
 31
0
  0
LINE
  8
1
 62
4
  6
CENTER
 10
144.0977379564862
 20
76.2298915355963
 30
0
 11
146.2190583000458
 21
76.2298915355963
 31
0
  0
LINE
  8
1
 62
4
  6
CENTER
 10
142.9100908247804
 20
76.2298915355963
 30
0
 11
144.0977379564862
 21
76.2298915355963
 31
0
  0
LINE
  8
1
 62
7
 10
144.4477379564861
 20
75.8798915355963
 30
0
 11
143.458398128266
 21
75.8798915355963
 31
0
  0
LINE
  8
1
 62
7
 10
145.8690583000458
 20
75.8798915355963
 30
0
 11
146.858398128266
 21
75.8798915355963
 31
0
  0
LINE
  8
1
 62
7
 10
106.8023749475525
 20
76.72989153559632
 30
0
 11
106.8023749475525
 21
80.2298915355963
 31
0
  0
LINE
  8
1
 62
7
 10
136.5023749475525
 20
76.57989153559629
 30
0
 11
136.8023749475525
 21
76.87989153559627
 31
0
  0
LINE
  8
1
 62
7
 10
136.8023749475525
 20
80.17989153559631
 30
0
 11
136.5023749475525
 21
80.4798915355963
 31
0
  0
LINE
  8
1
 62
7
 10
106.8023749475525
 20
80.17989153559631
 30
0
 11
107.1023749475525
 21
80.4798915355963
 31
0
  0
LINE
  8
1
 62
7
 10
107.1023749475525
 20
76.57989153559629
 30
0
 11
106.8023749475525
 21
76.87989153559627
 31
0
  0
LINE
  8
1
 62
7
 10
143.158398128266
 20
80.1798915355963
 30
0
 11
143.158398128266
 21
76.87989153559629
 31
0
  0
LINE
  8
1
 62
7
 10
146.858398128266
 20
80.4798915355963
 30
0
 11
143.458398128266
 21
80.4798915355963
 31
0
  0
LINE
  8
1
 62
7
 10
147.158398128266
 20
80.1798915355963
 30
0
 11
147.158398128266
 21
76.87989153559629
 31
0
  0
LINE
  8
1
 62
7
 10
143.458398128266
 20
76.57989153559629
 30
0
 11
144.4477379564861
 21
76.57989153559629
 31
0
  0
LINE
  8
1
 62
7
 10
146.858398128266
 20
76.57989153559629
 30
0
 11
145.8690583000458
 21
76.57989153559629
 31
0
  0
LINE
  8
1
 62
7
 10
147.158398128266
 20
76.87989153559629
 30
0
 11
146.858398128266
 21
76.57989153559629
 31
0
  0
LINE
  8
1
 62
7
 10
143.158398128266
 20
76.87989153559629
 30
0
 11
143.458398128266
 21
76.57989153559629
 31
0
  0
LINE
  8
1
 62
7
 10
143.158398128266
 20
80.1798915355963
 30
0
 11
143.458398128266
 21
80.4798915355963
 31
0
  0
LINE
  8
1
 62
7
 10
146.858398128266
 20
80.4798915355963
 30
0
 11
147.158398128266
 21
80.1798915355963
 31
0
  0
LINE
  8
1
 62
7
 10
136.0523749475525
 20
76.87989153559627
 30
0
 11
136.0523749475525
 21
76.57989153559629
 31
0
  0
LINE
  8
1
 62
7
 10
136.0523749475525
 20
80.17989153559631
 30
0
 11
136.0523749475525
 21
80.4798915355963
 31
0
  0
LINE
  8
1
 62
7
 10
136.5023749475525
 20
80.4798915355963
 30
0
 11
127.736191981192
 21
80.4798915355963
 31
0
  0
LINE
  8
1
 62
7
 10
107.5523749475525
 20
76.87989153559627
 30
0
 11
107.5523749475525
 21
76.57989153559629
 31
0
  0
LINE
  8
1
 62
7
 10
107.1023749475525
 20
76.57989153559629
 30
0
 11
107.5523749475525
 21
76.57989153559629
 31
0
  0
LINE
  8
1
 62
7
 10
107.5523749475525
 20
80.4798915355963
 30
0
 11
107.5523749475525
 21
80.17989153559631
 31
0
  0
LINE
  8
1
 62
7
 10
107.5523749475525
 20
72.27989153559628
 30
0
 11
107.5523749475525
 21
71.9798915355963
 31
0
  0
LINE
  8
1
 62
7
 10
107.5523749475525
 20
75.8798915355963
 30
0
 11
107.5523749475525
 21
75.57989153559632
 31
0
  0
LINE
  8
1
 62
7
 10
136.0523749475525
 20
71.9798915355963
 30
0
 11
136.0523749475525
 21
72.27989153559628
 31
0
  0
LINE
  8
1
 62
7
 10
136.0523749475525
 20
75.8798915355963
 30
0
 11
136.0523749475525
 21
75.57989153559632
 31
0
  0
LINE
  8
1
 62
7
 10
147.158398128266
 20
72.27989153559629
 30
0
 11
146.858398128266
 21
71.9798915355963
 31
0
  0
LINE
  8
1
 62
7
 10
143.458398128266
 20
71.9798915355963
 30
0
 11
143.158398128266
 21
72.27989153559629
 31
0
  0
LINE
  8
1
 62
7
 10
143.458398128266
 20
75.8798915355963
 30
0
 11
143.158398128266
 21
75.5798915355963
 31
0
  0
LINE
  8
1
 62
7
 10
146.858398128266
 20
75.8798915355963
 30
0
 11
147.158398128266
 21
75.5798915355963
 31
0
  0
LINE
  8
1
 62
7
 10
147.158398128266
 20
75.5798915355963
 30
0
 11
147.158398128266
 21
72.27989153559629
 31
0
  0
LINE
  8
1
 62
7
 10
143.458398128266
 20
71.9798915355963
 30
0
 11
146.858398128266
 21
71.9798915355963
 31
0
  0
LINE
  8
1
 62
7
 10
143.158398128266
 20
75.5798915355963
 30
0
 11
143.158398128266
 21
72.27989153559629
 31
0
  0
LINE
  8
1
 62
7
 10
106.8023749475525
 20
75.57989153559632
 30
0
 11
107.1023749475525
 21
75.8798915355963
 31
0
  0
LINE
  8
1
 62
7
 10
107.1023749475525
 20
71.9798915355963
 30
0
 11
106.8023749475525
 21
72.27989153559628
 31
0
  0
LINE
  8
1
 62
7
 10
136.5023749475525
 20
71.9798915355963
 30
0
 11
136.8023749475525
 21
72.27989153559628
 31
0
  0
LINE
  8
1
 62
7
 10
136.8023749475525
 20
75.57989153559632
 30
0
 11
136.5023749475525
 21
75.8798915355963
 31
0
  0
LINE
  8
1
 62
7
 10
136.8023749475525
 20
72.2298915355963
 30
0
 11
136.8023749475525
 21
75.7298915355963
 31
0
  0
LINE
  8
1
 62
4
  6
CENTER
 10
151.52625530115
 20
76.22959426317809
 30
0
 11
155.958919542275
 21
76.22959426317809
 31
0
  0
LINE
  8
1
 62
4
  6
DASHDOT
 10
105.614780308078
 20
76.2298915355963
 30
0
 11
137.941495402807
 21
76.2298915355963
 31
0
  0
LINE
  8
1
 62
7
 10
136.8023749475525
 20
80.2298915355963
 30
0
 11
136.8023749475525
 21
76.72989153559632
 31
0
  0
LINE
  8
1
 62
7
 10
137.8023749475524
 20
79.92989153559631
 30
0
 11
137.8023749475524
 21
77.02989153559631
 31
0
  0
LINE
  8
1
 62
7
 10
136.8023749475525
 20
76.72989153559632
 30
0
 11
137.5023749475525
 21
76.72989153559632
 31
0
  0
LINE
  8
1
 62
7
 10
137.5023749475525
 20
80.2298915355963
 30
0
 11
137.8023749475524
 21
79.92989153559631
 31
0
  0
LINE
  8
1
 62
7
 10
137.8023749475524
 20
77.02989153559631
 30
0
 11
137.5023749475525
 21
76.72989153559632
 31
0
  0
LINE
  8
1
 62
7
 10
137.5023749475525
 20
80.2298915355963
 30
0
 11
136.8023749475525
 21
80.2298915355963
 31
0
  0
LINE
  8
1
 62
7
 10
137.5023749475525
 20
80.2298915355963
 30
0
 11
137.5023749475525
 21
76.72989153559632
 31
0
  0
LINE
  8
1
 62
7
 10
136.8023749475525
 20
72.2298915355963
 30
0
 11
137.5023749475525
 21
72.2298915355963
 31
0
  0
LINE
  8
1
 62
7
 10
137.8023749475524
 20
72.52989153559628
 30
0
 11
137.5023749475525
 21
72.2298915355963
 31
0
  0
LINE
  8
1
 62
7
 10
137.8023749475524
 20
75.42989153559628
 30
0
 11
137.8023749475524
 21
72.52989153559628
 31
0
  0
LINE
  8
1
 62
7
 10
137.5023749475525
 20
75.7298915355963
 30
0
 11
137.5023749475525
 21
72.2298915355963
 31
0
  0
LINE
  8
1
 62
7
 10
137.5023749475525
 20
75.7298915355963
 30
0
 11
137.8023749475524
 21
75.42989153559628
 31
0
  0
LINE
  8
1
 62
7
 10
137.5023749475525
 20
75.7298915355963
 30
0
 11
136.8023749475525
 21
75.7298915355963
 31
0
  0
LINE
  8
1
 62
7
 10
137.5023749475525
 20
75.7298915355963
 30
0
 11
136.8023749475525
 21
75.7298915355963
 31
0
  0
LINE
  8
1
 62
7
 10
105.8023749475525
 20
79.92989153559631
 30
0
 11
105.8023749475525
 21
77.02989153559631
 31
0
  0
LINE
  8
1
 62
7
 10
106.8023749475525
 20
76.72989153559632
 30
0
 11
106.1023749475525
 21
76.72989153559632
 31
0
  0
LINE
  8
1
 62
7
 10
106.1023749475525
 20
80.2298915355963
 30
0
 11
106.1023749475525
 21
76.72989153559632
 31
0
  0
LINE
  8
1
 62
7
 10
106.1023749475525
 20
80.2298915355963
 30
0
 11
106.8023749475525
 21
80.2298915355963
 31
0
  0
LINE
  8
1
 62
7
 10
106.1023749475525
 20
80.2298915355963
 30
0
 11
105.8023749475525
 21
79.92989153559631
 31
0
  0
LINE
  8
1
 62
7
 10
105.8023749475525
 20
77.02989153559631
 30
0
 11
106.1023749475525
 21
76.72989153559632
 31
0
  0
LINE
  8
1
 62
7
 10
106.1023749475525
 20
75.72989153559625
 30
0
 11
105.8023749475525
 21
75.42989153559626
 31
0
  0
LINE
  8
1
 62
7
 10
105.8023749475525
 20
72.52989153559628
 30
0
 11
106.1023749475525
 21
72.2298915355963
 31
0
  0
LINE
  8
1
 62
7
 10
105.8023749475525
 20
75.42989153559626
 30
0
 11
105.8023749475525
 21
72.52989153559628
 31
0
  0
LINE
  8
1
 62
7
 10
106.1023749475525
 20
75.72989153559625
 30
0
 11
106.1023749475525
 21
72.2298915355963
 31
0
  0
LINE
  8
1
 62
7
 10
106.8023749475525
 20
72.2298915355963
 30
0
 11
106.1023749475525
 21
72.2298915355963
 31
0
  0
LINE
  8
1
 62
7
 10
106.1023749475525
 20
75.72989153559625
 30
0
 11
106.8023749475525
 21
75.72989153559627
 31
0
  0
LINE
  8
1
 62
7
 10
106.8023749475525
 20
75.72989153559627
 30
0
 11
106.8023749475525
 21
72.2298915355963
 31
0
  0
LINE
  8
1
 62
7
 10
144.6678870928325
 20
76.80004067194264
 30
0
 11
144.0977379564862
 21
76.2298915355963
 31
0
  0
LINE
  8
1
 62
7
 10
145.6489091636995
 20
75.65974239924995
 30
0
 11
146.2190583000458
 21
76.2298915355963
 31
0
  0
LINE
  8
1
 62
3
  6
CENTER
 10
109.7023749475525
 20
73.77989153559628
 30
0
 11
113.9023749475525
 21
73.77989153559628
 31
0
  0
LINE
  8
1
 62
3
  6
CENTER
 10
111.8023749475525
 20
71.67989153559628
 30
0
 11
111.8023749475525
 21
75.8798915355963
 31
0
  0
LINE
  8
1
 62
3
  6
CENTER
 10
119.7023749475525
 20
73.77989153559628
 30
0
 11
123.9023749475525
 21
73.77989153559628
 31
0
  0
LINE
  8
1
 62
3
  6
CENTER
 10
121.8023749475525
 20
71.67989153559628
 30
0
 11
121.8023749475525
 21
75.8798915355963
 31
0
  0
LINE
  8
1
 62
3
  6
CENTER
 10
129.7023749475525
 20
73.77989153559628
 30
0
 11
133.9023749475525
 21
73.77989153559628
 31
0
  0
LINE
  8
1
 62
3
  6
CENTER
 10
131.8023749475525
 20
71.67989153559628
 30
0
 11
131.8023749475525
 21
75.8798915355963
 31
0
  0
LINE
  8
1
 62
3
  6
CENTER
 10
133.9023749475525
 20
78.6798915355963
 30
0
 11
129.7023749475525
 21
78.6798915355963
 31
0
  0
LINE
  8
1
 62
3
  6
CENTER
 10
131.8023749475525
 20
76.57989153559628
 30
0
 11
131.8023749475525
 21
80.77989153559629
 31
0
  0
LINE
  8
1
 62
3
  6
CENTER
 10
123.9023749475525
 20
78.6798915355963
 30
0
 11
119.7023749475525
 21
78.6798915355963
 31
0
  0
LINE
  8
1
 62
3
  6
CENTER
 10
121.8023749475525
 20
76.57989153559628
 30
0
 11
121.8023749475525
 21
80.77989153559629
 31
0
  0
LINE
  8
1
 62
3
  6
CENTER
 10
113.9023749475525
 20
78.6798915355963
 30
0
 11
109.7023749475525
 21
78.6798915355963
 31
0
  0
LINE
  8
1
 62
3
  6
CENTER
 10
111.8023749475525
 20
76.57989153559628
 30
0
 11
111.8023749475525
 21
80.77989153559629
 31
0
  0
LINE
  8
1
 62
7
 10
155.984828254077
 20
80.17929699075987
 30
0
 11
154.584828254077
 21
80.17929699075985
 31
0
  0
LINE
  8
1
 62
3
 10
154.584828254077
 20
79.67929699075985
 30
0
 11
151.984828254077
 21
79.67929699075985
 31
0
  0
LINE
  8
1
 62
3
 10
154.584828254077
 20
77.67929699075985
 30
0
 11
151.984828254077
 21
77.67929699075985
 31
0
  0
LINE
  8
1
 62
7
 10
151.984828254077
 20
76.87929699075984
 30
0
 11
151.984828254077
 21
80.17929699075987
 31
0
  0
LINE
  8
1
 62
7
 10
154.584828254077
 20
77.85429699075986
 30
0
 11
151.984828254077
 21
77.85429699075986
 31
0
  0
LINE
  8
1
 62
7
 10
154.584828254077
 20
79.50429699075986
 30
0
 11
151.984828254077
 21
79.50429699075986
 31
0
  0
LINE
  8
1
 62
7
 10
155.984828254077
 20
80.17929699075987
 30
0
 11
155.984828254077
 21
76.87929699075984
 31
0
  0
LINE
  8
1
 62
7
 10
154.584828254077
 20
77.17929699075985
 30
0
 11
155.984828254077
 21
77.17929699075985
 31
0
  0
LINE
  8
1
 62
7
 10
154.584828254077
 20
80.17929699075985
 30
0
 11
154.584828254077
 21
77.17929699075985
 31
0
  0
LINE
  8
1
 62
3
  6
CENTER
 10
156.384828254077
 20
78.67929699075985
 30
0
 11
151.584828254077
 21
78.67929699075985
 31
0
  0
LINE
  8
1
 62
7
 10
155.684828254077
 20
80.47929699075986
 30
0
 11
152.284828254077
 21
80.47929699075986
 31
0
  0
LINE
  8
1
 62
7
 10
155.684828254077
 20
80.47929699075986
 30
0
 11
155.984828254077
 21
80.17929699075987
 31
0
  0
LINE
  8
1
 62
7
 10
151.984828254077
 20
80.17929699075987
 30
0
 11
152.284828254077
 21
80.47929699075986
 31
0
  0
LINE
  8
1
 62
7
 10
153.2741680822972
 20
76.57929699075984
 30
0
 11
152.284828254077
 21
76.57929699075984
 31
0
  0
LINE
  8
1
 62
7
 10
154.6954884258569
 20
76.57929699075984
 30
0
 11
155.684828254077
 21
76.57929699075984
 31
0
  0
LINE
  8
1
 62
7
 10
155.684828254077
 20
76.57929699075984
 30
0
 11
155.984828254077
 21
76.87929699075984
 31
0
  0
LINE
  8
1
 62
7
 10
152.284828254077
 20
76.57929699075984
 30
0
 11
151.984828254077
 21
76.87929699075984
 31
0
  0
LINE
  8
1
 62
7
 10
153.2741680822972
 20
76.57929699075984
 30
0
 11
153.6848282540769
 21
76.98995716253961
 31
0
  0
LINE
  8
1
 62
7
 10
154.6954884258569
 20
76.57929699075984
 30
0
 11
154.284828254077
 21
76.98995716253972
 31
0
  0
LINE
  8
1
 62
3
  6
DIVIDE
 10
126.8595639691369
 20
81.17956884787841
 30
0
 11
125.0968461957364
 21
71.18269958647485
 31
0
  0
LINE
  8
1
 62
3
  6
DIVIDE
 10
127.8595639691369
 20
81.17956884787841
 30
0
 11
126.0968461957364
 21
71.18269958647485
 31
0
  0
LINE
  8
1
 62
7
 10
126.736191981192
 20
80.4798915355963
 30
0
 11
107.1023749475525
 21
80.4798915355963
 31
0
  0
LINE
  8
1
 62
7
 10
127.6832938869795
 20
80.17989153559631
 30
0
 11
136.0523749475525
 21
80.17989153559631
 31
0
  0
LINE
  8
1
 62
7
 10
127.1014148506415
 20
76.87989153559627
 30
0
 11
136.0523749475525
 21
76.87989153559627
 31
0
  0
LINE
  8
1
 62
7
 10
127.048516756429
 20
76.57989153559629
 30
0
 11
136.5023749475525
 21
76.57989153559629
 31
0
  0
LINE
  8
1
 62
7
 10
126.9250878699331
 20
75.8798915355963
 30
0
 11
136.5023749475525
 21
75.8798915355963
 31
0
  0
LINE
  8
1
 62
7
 10
126.8721897757205
 20
75.57989153559632
 30
0
 11
136.0523749475525
 21
75.57989153559632
 31
0
  0
LINE
  8
1
 62
7
 10
126.2903107393826
 20
72.27989153559628
 30
0
 11
136.0523749475525
 21
72.27989153559628
 31
0
  0
LINE
  8
1
 62
7
 10
126.23741264517
 20
71.9798915355963
 30
0
 11
136.5023749475525
 21
71.9798915355963
 31
0
  0
LINE
  8
1
 62
7
 10
153.2741680822972
 20
76.57929699075984
 30
0
 11
152.9241680822972
 21
76.22959426317809
 31
0
  0
LINE
  8
1
 62
7
 10
152.9241680822972
 20
76.22959426317809
 30
0
 11
153.2741680822971
 21
75.87989153559632
 31
0
  0
LINE
  8
1
 62
7
 10
153.6848282540769
 20
76.98995716253961
 30
0
 11
153.984828254077
 21
77.29025443495792
 31
0
  0
LINE
  8
1
 62
4
  6
CENTER
 10
153.984828254077
 20
77.29025443495792
 30
0
 11
153.984828254077
 21
75.16893409139826
 31
0
  0
LINE
  8
1
 62
7
 10
153.984828254077
 20
77.29025443495792
 30
0
 11
154.284828254077
 21
76.98995716253972
 31
0
  0
LINE
  8
1
 62
7
 10
154.6954884258569
 20
76.57929699075984
 30
0
 11
155.0454884258568
 21
76.22959426317809
 31
0
  0
LINE
  8
1
 62
7
 10
155.0454884258568
 20
76.22959426317809
 30
0
 11
154.6954884258568
 21
75.87989153559632
 31
0
  0
LINE
  8
1
 62
7
 10
154.2848282540771
 20
75.46923136381655
 30
0
 11
153.984828254077
 21
75.16893409139826
 31
0
  0
LINE
  8
1
 62
4
  6
CENTER
 10
153.984828254077
 20
75.16893409139826
 30
0
 11
153.984828254077
 21
71.27088005672226
 31
0
  0
LINE
  8
1
 62
7
 10
153.984828254077
 20
75.16893409139826
 30
0
 11
153.684828254077
 21
75.46923136381643
 31
0
  0
ARC
  8
1
 62
7
 10
133.8546476748252
 20
78.52989153559625
 30
0
 40
2.748182156497139
 50
323.1016724295068
 51
36.89832757049458
  0
ARC
  8
1
 62
7
 10
109.7501022202797
 20
78.52989153559625
 30
0
 40
2.748182156497122
 50
143.1016724295044
 51
216.8983275704942
  0
ARC
  8
1
 62
7
 10
109.7501022202797
 20
73.92989153559634
 30
0
 40
2.748182156497071
 50
143.1016724295058
 51
216.8983275704956
  0
ARC
  8
1
 62
7
 10
133.8546476748252
 20
73.92989153559634
 30
0
 40
2.74818215649719
 50
323.1016724295054
 51
36.89832757049317
  0
CIRCLE
  8
1
 62
7
 10
145.158398128266
 20
73.9798915355963
 30
0
 40
1.450000000000017
  0
CIRCLE
  8
1
 62
7
 10
145.158398128266
 20
73.9798915355963
 30
0
 40
1.75
  0
CIRCLE
  8
1
 62
7
 10
145.158398128266
 20
78.4798915355963
 30
0
 40
1.450000000000017
  0
CIRCLE
  8
1
 62
7
 10
145.158398128266
 20
78.4798915355963
 30
0
 40
1.75
  0
CIRCLE
  8
1
 62
7
 10
111.8023749475525
 20
73.77989153559628
 30
0
 40
0.8000000000000114
  0
CIRCLE
  8
1
 62
3
 10
111.8023749475525
 20
73.77989153559628
 30
0
 40
1
  0
CIRCLE
  8
1
 62
7
 10
111.8023749475525
 20
73.77989153559628
 30
0
 40
1.5
  0
CIRCLE
  8
1
 62
7
 10
121.8023749475525
 20
73.77989153559628
 30
0
 40
0.8000000000000114
  0
CIRCLE
  8
1
 62
3
 10
121.8023749475525
 20
73.77989153559628
 30
0
 40
1
  0
CIRCLE
  8
1
 62
7
 10
121.8023749475525
 20
73.77989153559628
 30
0
 40
1.5
  0
CIRCLE
  8
1
 62
7
 10
131.8023749475525
 20
73.77989153559628
 30
0
 40
0.8000000000000114
  0
CIRCLE
  8
1
 62
3
 10
131.8023749475525
 20
73.77989153559628
 30
0
 40
1
  0
CIRCLE
  8
1
 62
7
 10
131.8023749475525
 20
73.77989153559628
 30
0
 40
1.5
  0
CIRCLE
  8
1
 62
7
 10
131.8023749475525
 20
78.6798915355963
 30
0
 40
0.8000000000000114
  0
CIRCLE
  8
1
 62
3
 10
131.8023749475525
 20
78.6798915355963
 30
0
 40
1
  0
CIRCLE
  8
1
 62
7
  6
DASHED
 10
131.8023749475525
 20
78.6798915355963
 30
0
 40
1.5
  0
CIRCLE
  8
1
 62
7
 10
121.8023749475525
 20
78.6798915355963
 30
0
 40
0.8000000000000114
  0
CIRCLE
  8
1
 62
3
 10
121.8023749475525
 20
78.6798915355963
 30
0
 40
1
  0
CIRCLE
  8
1
 62
7
  6
DASHED
 10
121.8023749475525
 20
78.6798915355963
 30
0
 40
1.5
  0
CIRCLE
  8
1
 62
7
 10
111.8023749475525
 20
78.6798915355963
 30
0
 40
0.8000000000000114
  0
CIRCLE
  8
1
 62
3
 10
111.8023749475525
 20
78.6798915355963
 30
0
 40
1
  0
CIRCLE
  8
1
 62
7
  6
DASHED
 10
111.8023749475525
 20
78.6798915355963
 30
0
 40
1.5
  0
TEXT
  8
1
 62
2
 10
140.650496183133
 20
49.8642254986325
 30
0
 40
3.5
  1
UNION TOOL CO.
 41
0.72
  7
COMPLEX
  0
TEXT
  8
1
 62
2
 10
103.093690821375
 20
96.4371511310794
 30
0
 40
3.5
  1
MODEL : G1
 41
0.72
  7
COMPLEX
  0
ENDSEC
  0
EOF
