  0
SECTION
  2
HEADER
  9
$ACADVER
  1
AC1009
  9
$INSBASE
 10
0
 20
0
  9
$EXTMIN
 10
-57.84538607522444
 20
-33.1440385370472
  9
$EXTMAX
 10
289.7033197286951
 20
68.47261008914951
  9
$LIMMIN
 10
-57.84538607522444
 20
-33.1440385370472
  9
$LIMMAX
 10
289.7033197286951
 20
68.47261008914951
  9
$VIEWCTR
 10
10
 20
10
  9
$VIEWSIZE
 40
10
  9
$SNAPMODE
 70
0
  9
$SNAPUNIT
 10
1
 20
1
  9
$SNAPBASE
 10
0
 20
0
  9
$SNAPANG
 50
0
  9
$SNAPSTYLE
 70
0
  9
$SNAPISOPAIR
 70
0
  9
$GRIDMODE
 70
0
  9
$GRIDUNIT
 10
0
 20
0
  9
$ORTHOMODE
 70
0
  9
$REGENMODE
 70
1
  9
$FILLMODE
 70
1
  9
$QTEXTMODE
 70
0
  9
$DRAGMODE
 70
2
  9
$LTSCALE
 40
1
  9
$OSMODE
 70
0
  9
$ATTMODE
 70
1
  9
$TEXTSIZE
 40
3.5
  9
$TRACEWID
 40
0.5
  9
$TEXTSTYLE
  7
STANDARD
  9
$CLAYER
  8
0
  9
$CELTYPE
  6
BYLAYER
  9
$CECOLOR
 62
256
  9
$DIMSCALE
 40
1
  9
$DIMASZ
 40
0.18
  9
$DIMEXO
 40
0.0625
  9
$DIMDLI
 40
0.38
  9
$DIMRND
 40
0
  9
$DIMDLE
 40
0
  9
$DIMEXE
 40
0.18
  9
$DIMTP
 40
0
  9
$DIMTM
 40
0
  9
$DIMTXT
 40
0.18
  9
$DIMCEN
 40
0.09
  9
$DIMTSZ
 40
0
  9
$DIMTOL
 70
0
  9
$DIMLIM
 70
0
  9
$DIMTIH
 70
1
  9
$DIMTOH
 70
1
  9
$DIMSE1
 70
0
  9
$DIMSE2
 70
0
  9
$DIMTAD
 70
0
  9
$DIMZIN
 70
0
  9
$DIMBLK
  1

  9
$DIMASO
 70
1
  9
$DIMSHO
 70
1
  9
$DIMPOST
  1

  9
$DIMAPOST
  1

  9
$DIMALT
 70
0
  9
$DIMALTD
 70
2
  9
$DIMALTF
 40
25.4
  9
$DIMLFAC
 40
1
  9
$DIMTOFL
 70
0
  9
$DIMTVP
 40
0
  9
$DIMTIX
 70
0
  9
$DIMSOXD
 70
0
  9
$DIMSAH
 70
0
  9
$DIMBLK1
  1

  9
$DIMBLK2
  1

  9
$DIMSTYLE
  2
*UNNAMED
  9
$DIMCLRD
 70
0
  9
$DIMCLRE
 70
0
  9
$DIMCLRT
 70
0
  9
$DIMTFAC
 40
1
  9
$DIMGAP
 40
0.09
  9
$LUNITS
 70
2
  9
$LUPREC
 70
4
  9
$AXISMODE
 70
0
  9
$AXISUNIT
 10
0
 20
0
  9
$SKETCHINC
 40
0.1
  9
$FILLETRAD
 40
2
  9
$AUNITS
 70
0
  9
$AUPREC
 70
0
  9
$MENU
  1
ACAD
  9
$ELEVATION
 40
0
  9
$THICKNESS
 40
0
  9
$VIEWDIR
 10
0
 20
0
 30
1
  9
$LIMCHECK
 70
0
  9
$BLIPMODE
 70
1
  9
$CHAMFERA
 40
0
  9
$CHAMFERB
 40
0
  9
$FASTZOOM
 70
1
  9
$SKPOLY
 70
0
  9
$ANGBASE
 50
0
  9
$ANGDIR
 70
0
  9
$PDMODE
 70
0
  9
$PDSIZE
 40
0
  9
$PLINEWID
 40
0
  9
$COORDS
 70
2
  0
ENDSEC
  0
SECTION
  2
TABLES
  0
TABLE
  2
DIMSTYLE
 70
0
  0
ENDTAB
  0
TABLE
  2
LTYPE
 70
9
  0
LTYPE
  2
CONTINUOUS
 70
64
  3
Solid line
 72
65
 73
0
 40
0
  0
LTYPE
  2
BORDER
 70
64
  3
__ __ . __ __ .
 72
65
 73
6
 40
16.00553250412787
 49
4.573009286893678
 49
-2.286504643446839
 49
4.573009286893678
 49
-2.286504643446839
 49
0
 49
-2.286504643446839
  0
LTYPE
  2
CENTER
 70
64
  3
____ _ ____ _
 72
65
 73
4
 40
18.29203714757471
 49
11.4325232172342
 49
-2.286504643446839
 49
2.286504643446839
 49
-2.286504643446839
  0
LTYPE
  2
DASHDOT
 70
64
  3
__ . __ . __ .
 72
65
 73
4
 40
9.146018573787355
 49
4.573009286893678
 49
-2.286504643446839
 49
0
 49
-2.286504643446839
  0
LTYPE
  2
DASHED
 70
64
  3
__ __ __ __ __
 72
65
 73
2
 40
6.859513930340516
 49
4.573009286893678
 49
-2.286504643446839
  0
LTYPE
  2
DIVIDE
 70
64
  3
__ . . __ . . 
 72
65
 73
6
 40
11.4325232172342
 49
4.573009286893678
 49
-2.286504643446839
 49
0
 49
-2.286504643446839
 49
0
 49
-2.286504643446839
  0
LTYPE
  2
DOT
 70
64
  3
..............
 72
65
 73
4
 40
4.573009286893678
 49
0
 49
-2.286504643446839
 49
0
 49
-2.286504643446839
  0
LTYPE
  2
HIDDEN
 70
64
  3
_ _ _ _ _ _ _
 72
65
 73
2
 40
3.429756965170258
 49
2.286504643446839
 49
-1.143252321723419
  0
LTYPE
  2
PHANTOM
 70
64
  3
_____ _ _ _____ _ _ 
 72
65
 73
6
 40
22.86504643446839
 49
11.4325232172342
 49
-2.286504643446839
 49
2.286504643446839
 49
-2.286504643446839
 49
2.286504643446839
 49
-2.286504643446839
  0
ENDTAB
  0
TABLE
  2
LAYER
 70
3
  0
LAYER
  2
1
 70
0
 62
7
  6
CONTINUOUS
  0
LAYER
  2
0
 70
0
 62
7
  6
CONTINUOUS
  0
ENDTAB
  0
TABLE
  2
STYLE
 70
4
  0
STYLE
  2
STANDARD
 70
0
 40
0
 41
1
 50
0
 71
0
 42
3.5
  3
txt
  4

  0
STYLE
  2
SIMPLEX
 70
0
 40
0
 41
1
 50
0
 71
0
 42
3.5
  3
simplex
  4

  0
STYLE
  2
COMPLEX
 70
0
 40
0
 41
1
 50
0
 71
0
 42
3.5
  3
complex
  4

  0
STYLE
  2
ITALIC
 70
0
 40
0
 41
1
 50
0
 71
0
 42
3.5
  3
italic
  4

  0
ENDTAB
  0
TABLE
  2
VIEW
 70
0
  0
ENDTAB
  0
ENDSEC
  0
SECTION
  2
BLOCKS
  0
ENDSEC
  0
SECTION
  2
ENTITIES
  0
LINE
  8
1
 62
7
 10
19.70331972869417
 20
17.5687414031961
 30
0
 11
19.70331972869417
 21
-2.9312585968039
 31
0
  0
LINE
  8
1
 62
7
 10
19.70331972869417
 20
17.5687414031961
 30
0
 11
235.2607336085368
 21
17.5687414031961
 31
0
  0
LINE
  8
1
 62
3
  6
CENTER
 10
-57.26011854169172
 20
5.0687414031961
 30
0
 11
-16.9478614023439
 21
5.0687414031961
 31
0
  0
LINE
  8
1
 62
7
 10
-46.07027904976184
 20
17.5687414031961
 30
0
 11
-49.0947451438289
 21
17.5687414031961
 31
0
  0
LINE
  8
1
 62
7
 10
-46.07027904976184
 20
17.5687414031961
 30
0
 11
-43.42474514382814
 21
14.92320749726653
 31
0
  0
LINE
  8
1
 62
7
 10
-43.42474514382814
 20
14.92320749726653
 30
0
 11
-40.77921123789582
 21
17.5687414031961
 31
0
  0
LINE
  8
1
 62
7
 10
-40.77921123789582
 20
17.5687414031961
 30
0
 11
-34.41027904976107
 21
17.5687414031961
 31
0
  0
LINE
  8
1
 62
7
 10
-34.41027904976107
 20
17.5687414031961
 30
0
 11
-31.76474514382852
 21
14.92320749726631
 31
0
  0
LINE
  8
1
 62
7
 10
-31.76474514382852
 20
14.92320749726631
 30
0
 11
-29.11921123789597
 21
17.5687414031961
 31
0
  0
LINE
  8
1
 62
7
 10
-25.0947451438289
 20
-1.9312585968039
 30
0
 11
-25.0947451438289
 21
16.5687414031961
 31
0
  0
LINE
  8
1
 62
7
 10
-50.0947451438289
 20
-1.9312585968039
 30
0
 11
-50.0947451438289
 21
16.5687414031961
 31
0
  0
LINE
  8
1
 62
7
 10
-26.0947451438289
 20
-2.9312585968039
 30
0
 11
-49.0947451438289
 21
-2.9312585968039
 31
0
  0
LINE
  8
1
 62
7
 10
-26.0947451438289
 20
-2.9312585968039
 30
0
 11
-25.0947451438289
 21
-1.9312585968039
 31
0
  0
LINE
  8
1
 62
7
 10
-49.0947451438289
 20
-2.9312585968039
 30
0
 11
-50.0947451438289
 21
-1.9312585968039
 31
0
  0
LINE
  8
1
 62
7
 10
-50.0947451438289
 20
16.5687414031961
 30
0
 11
-49.0947451438289
 21
17.5687414031961
 31
0
  0
LINE
  8
1
 62
7
 10
-25.0947451438289
 20
16.5687414031961
 30
0
 11
-26.0947451438289
 21
17.5687414031961
 31
0
  0
LINE
  8
1
 62
7
 10
-26.14234980965392
 20
18.46874140321211
 30
0
 11
-25.0947451438289
 21
19.51634606904167
 31
0
  0
LINE
  8
1
 62
7
 10
-25.0947451438289
 20
31.5687414031961
 30
0
 11
-25.99819393236902
 21
32.47219019173986
 31
0
  0
LINE
  8
1
 62
7
 10
-25.99819393236902
 20
32.47219019173986
 30
0
 11
-26.2984464640644
 21
32.17193766004323
 31
0
  0
LINE
  8
1
 62
7
 10
-29.67514919453896
 20
36.1491454539098
 30
0
 11
-30.5947451438289
 21
37.0687414031961
 31
0
  0
LINE
  8
1
 62
7
 10
-30.5947451438289
 20
37.0687414031961
 30
0
 11
-44.5947451438289
 21
37.0687414031961
 31
0
  0
LINE
  8
1
 62
7
 10
-44.5947451438289
 20
37.0687414031961
 30
0
 11
-45.51434109311793
 21
36.1491454539098
 31
0
  0
LINE
  8
1
 62
7
 10
-45.51434109311793
 20
36.1491454539098
 30
0
 11
-45.21408856142303
 21
35.84889292221364
 31
0
  0
LINE
  8
1
 62
7
 10
-49.19129635528788
 20
32.47219019173986
 30
0
 11
-50.0947451438289
 21
31.5687414031961
 31
0
  0
LINE
  8
1
 62
7
 10
-50.0947451438289
 20
19.51634606904167
 30
0
 11
-49.04714047800388
 21
18.46874140321211
 31
0
  0
LINE
  8
1
 62
7
 10
-49.04714047800388
 20
18.46874140321211
 30
0
 11
-47.35555324525029
 21
18.46874140321211
 31
0
  0
LINE
  8
1
 62
7
 10
-41.39474514382908
 20
18.46874140321211
 30
0
 11
-33.79474514382872
 21
18.46874140321211
 31
0
  0
LINE
  8
1
 62
7
 10
-47.35555324525029
 20
18.46874140321211
 30
0
 11
-47.03408497206328
 21
18.79020967639725
 31
0
  0
LINE
  8
1
 62
7
 10
-26.14234980965392
 20
18.46874140321211
 30
0
 11
-27.83393704240751
 21
18.46874140321211
 31
0
  0
LINE
  8
1
 62
7
 10
-27.83393704240751
 20
18.46874140321211
 30
0
 11
-28.15540531559452
 21
18.79020967639725
 31
0
  0
LINE
  8
1
 62
3
  6
CENTER
 10
-57.84538607522444
 20
26.0687414031961
 30
0
 11
-16.69315302644662
 21
26.0687414031961
 31
0
  0
LINE
  8
1
 62
7
 10
-50.0947451438289
 20
31.5687414031961
 30
0
 11
-50.0947451438289
 21
19.51634606904167
 31
0
  0
LINE
  8
1
 62
7
 10
-25.0947451438289
 20
31.5687414031961
 30
0
 11
-25.0947451438289
 21
19.51634606904167
 31
0
  0
LINE
  8
1
 62
7
 10
239.5174446984433
 20
17.5687414031961
 30
0
 11
289.7033197286942
 21
17.5687414031961
 31
0
  0
LINE
  8
1
 62
2
  6
DIVIDE
 10
238.3544805998022
 20
26.0687414031961
 30
0
 11
224.5653052223602
 21
-11.81670657921882
 31
0
  0
LINE
  8
1
 62
2
  6
DIVIDE
 10
242.6111916897057
 20
26.0687414031961
 30
0
 11
228.760315751801
 21
-11.98622747586001
 31
0
  0
LINE
  8
1
 62
3
  6
CENTER
 10
249.7033197286942
 20
13.29382334948218
 30
0
 11
249.7033197286951
 21
-2.9312585968039
 31
0
  0
LINE
  8
1
 62
7
 10
289.7033197286951
 20
-2.9312585968039
 30
0
 11
232.0560548959843
 21
-2.9312585968039
 31
0
  0
LINE
  8
1
 62
3
  6
CENTER
 10
241.245798550372
 20
5.0687414031961
 30
0
 11
259.0305007767552
 21
5.0687414031961
 31
0
  0
LINE
  8
1
 62
3
  6
CENTER
 10
139.7033197286942
 20
13.14437207025526
 30
0
 11
139.7033197286942
 21
-2.9312585968039
 31
0
  0
LINE
  8
1
 62
3
  6
CENTER
 10
130.3661850813837
 20
5.0687414031961
 30
0
 11
148.0014360285545
 21
5.0687414031961
 31
0
  0
LINE
  8
1
 62
7
 10
19.70331972869417
 20
-2.9312585968039
 30
0
 11
227.7993438060805
 21
-2.9312585968039
 31
0
  0
LINE
  8
1
 62
3
  6
CENTER
 10
59.70331972869417
 20
13.29382334948218
 30
0
 11
59.70331972869417
 21
-1.651304571864102
 31
0
  0
LINE
  8
1
 62
3
  6
CENTER
 10
50.85810453990007
 20
5.0687414031961
 30
0
 11
69.24061188313817
 21
5.0687414031961
 31
0
  0
LINE
  8
1
 62
7
 10
161.1127871843169
 20
37.0687414031961
 30
0
 11
161.1127871843169
 21
17.5687414031961
 31
0
  0
LINE
  8
1
 62
7
 10
161.1127871843169
 20
36.76874140320047
 30
0
 11
178.1127871843169
 21
36.76874140320047
 31
0
  0
LINE
  8
1
 62
7
 10
178.1127871843169
 20
36.76874140320047
 30
0
 11
178.1127871843169
 21
17.5687414031961
 31
0
  0
LINE
  8
1
 62
7
 10
161.1127871843169
 20
37.0687414031961
 30
0
 11
79.11278718431686
 21
37.0687414031961
 31
0
  0
LINE
  8
1
 62
7
 10
79.11278718431686
 20
37.0687414031961
 30
0
 11
79.11278718431686
 21
17.5687414031961
 31
0
  0
LINE
  8
1
 62
7
 10
62.11278718431686
 20
36.76874140320047
 30
0
 11
62.11278718431686
 21
17.5687414031961
 31
0
  0
LINE
  8
1
 62
7
 10
62.11278718431686
 20
18.46874140321211
 30
0
 11
178.1127871843169
 21
18.46874140321211
 31
0
  0
LINE
  8
1
 62
7
 10
62.11278718431686
 20
36.76874140320047
 30
0
 11
79.11278718431686
 21
36.76874140320047
 31
0
  0
LINE
  8
1
 62
7
 10
67.11278718431686
 20
32.47219019173986
 30
0
 11
79.11278718431686
 21
32.47219019173986
 31
0
  0
LINE
  8
1
 62
7
 10
67.11278718431686
 20
18.46874140321211
 30
0
 11
67.11278718431686
 21
36.76874140320047
 31
0
  0
LINE
  8
1
 62
7
 10
173.1127871843169
 20
36.76874140320047
 30
0
 11
173.1127871843169
 21
18.46874140321211
 31
0
  0
LINE
  8
1
 62
7
 10
161.1127871843169
 20
32.47219019173986
 30
0
 11
173.1127871843169
 21
32.47219019173986
 31
0
  0
LINE
  8
1
 62
3
  6
CENTER
 10
90.11278718431686
 20
31.21838564252153
 30
0
 11
90.11278718431686
 21
20.69444646688112
 31
0
  0
LINE
  8
1
 62
3
  6
CENTER
 10
84.3390856084693
 20
26.0687414031961
 30
0
 11
96.11896814252987
 21
26.0687414031961
 31
0
  0
LINE
  8
1
 62
3
  6
CENTER
 10
104.3390856084693
 20
26.0687414031961
 30
0
 11
116.1189681425299
 21
26.0687414031961
 31
0
  0
LINE
  8
1
 62
3
  6
CENTER
 10
110.1127871843169
 20
31.21838564252153
 30
0
 11
110.1127871843169
 21
20.69444646688112
 31
0
  0
LINE
  8
1
 62
3
  6
CENTER
 10
124.3390856084693
 20
26.0687414031961
 30
0
 11
136.1189681425299
 21
26.0687414031961
 31
0
  0
LINE
  8
1
 62
3
  6
CENTER
 10
130.1127871843169
 20
31.21838564252153
 30
0
 11
130.1127871843169
 21
20.69444646688112
 31
0
  0
LINE
  8
1
 62
3
  6
CENTER
 10
144.3390856084693
 20
26.0687414031961
 30
0
 11
156.1189681425299
 21
26.0687414031961
 31
0
  0
LINE
  8
1
 62
3
  6
CENTER
 10
150.1127871843169
 20
31.21838564252153
 30
0
 11
150.1127871843169
 21
20.69444646688112
 31
0
  0
LINE
  8
1
 62
7
 10
289.7033197286942
 20
17.5687414031961
 30
0
 11
289.7033197286951
 21
-2.9312585968039
 31
0
  0
LINE
  8
1
 62
7
 10
-44.45368092133842
 20
36.60930056229824
 30
0
 11
-49.68627110211887
 21
31.3767103815178
 31
0
  0
LINE
  8
1
 62
7
 10
-49.68627110211887
 20
31.3767103815178
 30
0
 11
-49.68627110211888
 21
21.33579408866882
 31
0
  0
LINE
  8
1
 62
7
 10
-49.68627110211888
 20
21.33579408866882
 30
0
 11
-47.14068668984731
 21
18.79020967639725
 31
0
  0
LINE
  8
1
 62
7
 10
-47.14068668984731
 20
18.79020967639725
 30
0
 11
-28.04880359781053
 21
18.79020967639725
 31
0
  0
LINE
  8
1
 62
7
 10
-25.50321918553896
 20
21.33579408866883
 30
0
 11
-25.50321918553896
 21
31.3767103815178
 31
0
  0
LINE
  8
1
 62
7
 10
-29.180174447709
 20
35.05366564368784
 30
0
 11
-35.33200344403195
 21
28.90183664736487
 31
0
  0
LINE
  8
1
 62
7
 10
-30.73580936631942
 20
36.60930056229824
 30
0
 11
-25.50321918553896
 21
31.3767103815178
 31
0
  0
LINE
  8
1
 62
7
 10
-35.33200344403195
 20
28.90183664736487
 30
0
 11
-37.04897084255119
 21
30.6188040458841
 31
0
  0
LINE
  8
1
 62
7
 10
-40.5446825011409
 20
34.11451570447382
 30
0
 11
-43.03946735896533
 21
36.60930056229824
 31
0
  0
LINE
  8
1
 62
7
 10
-44.45368092133842
 20
36.60930056229824
 30
0
 11
-30.73580936631942
 21
36.60930056229824
 31
0
  0
LINE
  8
1
 62
7
 10
-27.05885410414935
 20
32.93234530012819
 30
0
 11
-33.21068310047232
 21
26.78051630380523
 31
0
  0
LINE
  8
1
 62
7
 10
-33.21068310047232
 20
26.78051630380523
 30
0
 11
-31.49371570195308
 21
25.063548905286
 31
0
  0
LINE
  8
1
 62
7
 10
-27.99800404336339
 20
21.56783724669631
 30
0
 11
-26.63459003543743
 21
20.20442323877035
 31
0
  0
LINE
  8
1
 62
7
 10
-25.50321918553896
 20
21.33579408866883
 30
0
 11
-28.04880359781053
 21
18.79020967639725
 31
0
  0
LINE
  8
1
 62
7
 10
-49.68627110211887
 20
29.9624968191447
 30
0
 11
-47.19148624429445
 21
27.46771196132027
 31
0
  0
LINE
  8
1
 62
7
 10
-43.69577458570473
 20
23.97200030273056
 30
0
 11
-38.51398395937142
 21
18.79020967639725
 31
0
  0
LINE
  8
1
 62
7
 10
-29.97540172623435
 20
35.84889292221317
 30
0
 11
-29.67514919453896
 21
36.1491454539098
 31
0
  0
LINE
  8
1
 62
7
 10
-48.89104382359304
 20
32.17193766004363
 30
0
 11
-49.19129635528788
 21
32.47219019173986
 31
0
  0
LINE
  8
1
 62
7
 10
-33.47327687064139
 20
18.79020967639725
 30
0
 11
-33.79474514382872
 21
18.46874140321211
 31
0
  0
LINE
  8
1
 62
7
 10
-41.71621341701642
 20
18.79020967639725
 30
0
 11
-41.39474514382908
 21
18.46874140321211
 31
0
  0
LINE
  8
1
 62
7
 10
-37.59474514382891
 20
35.01211707617016
 30
0
 11
-38.84474514382891
 21
34.29042923968313
 31
0
  0
LINE
  8
1
 62
7
 10
-38.84474514382891
 20
34.29042923968313
 30
0
 11
-38.84474514382891
 21
32.84705356670907
 31
0
  0
LINE
  8
1
 62
7
 10
-38.84474514382891
 20
32.84705356670907
 30
0
 11
-37.59474514382891
 21
32.12536573022204
 31
0
  0
LINE
  8
1
 62
7
 10
-37.59474514382891
 20
32.12536573022204
 30
0
 11
-36.34474514382891
 21
32.84705356670907
 31
0
  0
LINE
  8
1
 62
7
 10
-36.34474514382891
 20
32.84705356670907
 30
0
 11
-36.34474514382891
 21
34.29042923968313
 31
0
  0
LINE
  8
1
 62
7
 10
-36.34474514382891
 20
34.29042923968313
 30
0
 11
-37.59474514382891
 21
35.01211707617016
 31
0
  0
LINE
  8
1
 62
7
 10
-28.5437783446411
 20
25.96115027698235
 30
0
 11
-29.7937783446411
 21
25.23946244049532
 31
0
  0
LINE
  8
1
 62
7
 10
-29.7937783446411
 20
25.23946244049532
 30
0
 11
-29.7937783446411
 21
23.79608676752126
 31
0
  0
LINE
  8
1
 62
7
 10
-29.7937783446411
 20
23.79608676752126
 30
0
 11
-28.5437783446411
 21
23.07439893103422
 31
0
  0
LINE
  8
1
 62
7
 10
-28.5437783446411
 20
23.07439893103422
 30
0
 11
-27.2937783446411
 21
23.79608676752126
 31
0
  0
LINE
  8
1
 62
7
 10
-27.2937783446411
 20
23.79608676752126
 30
0
 11
-27.2937783446411
 21
25.23946244049532
 31
0
  0
LINE
  8
1
 62
7
 10
-27.2937783446411
 20
25.23946244049532
 30
0
 11
-28.5437783446411
 21
25.96115027698235
 31
0
  0
LINE
  8
1
 62
7
 10
-46.64571194301672
 20
25.96115027698234
 30
0
 11
-47.89571194301672
 21
25.23946244049531
 31
0
  0
LINE
  8
1
 62
7
 10
-47.89571194301672
 20
25.23946244049531
 30
0
 11
-47.89571194301672
 21
23.79608676752125
 31
0
  0
LINE
  8
1
 62
7
 10
-47.89571194301672
 20
23.79608676752125
 30
0
 11
-46.64571194301672
 21
23.07439893103422
 31
0
  0
LINE
  8
1
 62
7
 10
-46.64571194301672
 20
23.07439893103422
 30
0
 11
-45.39571194301672
 21
23.79608676752125
 31
0
  0
LINE
  8
1
 62
7
 10
-45.39571194301672
 20
23.79608676752125
 30
0
 11
-45.39571194301672
 21
25.23946244049531
 31
0
  0
LINE
  8
1
 62
7
 10
-45.39571194301672
 20
25.23946244049531
 30
0
 11
-46.64571194301672
 21
25.96115027698234
 31
0
  0
LINE
  8
1
 62
7
 10
-29.11921123789597
 20
17.5687414031961
 30
0
 11
-26.0947451438289
 21
17.5687414031961
 31
0
  0
LINE
  8
1
 62
3
  6
PHANTOM
 10
-28.5437783446411
 20
28.266519034093
 30
0
 11
-28.5437783446411
 21
20.5815614328767
 31
0
  0
LINE
  8
1
 62
3
  6
PHANTOM
 10
-46.64571194301672
 20
28.3847491510348
 30
0
 11
-46.64571194301672
 21
20.995366842173
 31
0
  0
LINE
  8
1
 62
3
  6
PHANTOM
 10
-37.59474514382891
 20
37.6658133309653
 30
0
 11
-37.59474514382891
 21
29.3305900865691
 31
0
  0
LINE
  8
1
 62
3
  6
PHANTOM
 10
-33.5964916633577
 20
33.5687414031961
 30
0
 11
-41.547467027693
 21
33.5687414031961
 31
0
  0
LINE
  8
1
 62
3
  6
PHANTOM
 10
-42.8775558432882
 20
24.51777460400829
 30
0
 11
-50.7989736783881
 21
24.51777460400829
 31
0
  0
LINE
  8
1
 62
3
  6
PHANTOM
 10
-32.3550754354689
 20
24.51777460400828
 30
0
 11
-24.4927726588399
 21
24.51777460400828
 31
0
  0
LINE
  8
1
 62
3
  6
CENTER
 10
219.7033197286942
 20
13.14437207025526
 30
0
 11
219.7033197286942
 21
-2.9312585968039
 31
0
  0
LINE
  8
1
 62
3
  6
CENTER
 10
210.3661850813837
 20
5.0687414031961
 30
0
 11
228.0014360285545
 21
5.0687414031961
 31
0
  0
CIRCLE
  8
1
 62
7
 10
59.70331972869417
 20
5.0687414031961
 30
0
 40
5.25
  0
CIRCLE
  8
1
 62
7
 10
59.70331972869417
 20
5.0687414031961
 30
0
 40
3.25
  0
CIRCLE
  8
1
 62
7
 10
139.7033197286942
 20
5.0687414031961
 30
0
 40
3.25
  0
CIRCLE
  8
1
 62
7
 10
249.7033197286942
 20
5.0687414031961
 30
0
 40
5.25
  0
CIRCLE
  8
1
 62
7
 10
249.7033197286942
 20
5.0687414031961
 30
0
 40
3.25
  0
CIRCLE
  8
1
 62
3
 10
90.11278718431686
 20
26.0687414031961
 30
0
 40
3
  0
CIRCLE
  8
1
 62
7
 10
90.11278718431686
 20
26.0687414031961
 30
0
 40
2.5
  0
CIRCLE
  8
1
 62
7
 10
110.1127871843169
 20
26.0687414031961
 30
0
 40
2.5
  0
CIRCLE
  8
1
 62
3
 10
110.1127871843169
 20
26.0687414031961
 30
0
 40
3
  0
CIRCLE
  8
1
 62
7
 10
130.1127871843169
 20
26.0687414031961
 30
0
 40
2.5
  0
CIRCLE
  8
1
 62
3
 10
130.1127871843169
 20
26.0687414031961
 30
0
 40
3
  0
CIRCLE
  8
1
 62
7
 10
150.1127871843169
 20
26.0687414031961
 30
0
 40
2.5
  0
CIRCLE
  8
1
 62
3
 10
150.1127871843169
 20
26.0687414031961
 30
0
 40
3
  0
ARC
  8
1
 62
7
 10
-37.59474514382891
 20
33.5687414031961
 30
0
 40
3.000000000000003
 50
169.5181078410614
 51
280.4818921589386
  0
ARC
  8
1
 62
7
 10
-28.5437783446411
 20
24.51777460400829
 30
0
 40
2.999999999999992
 50
169.5181078410615
 51
280.4818921589385
  0
ARC
  8
1
 62
7
 10
-46.64571194301672
 20
24.51777460400828
 30
0
 40
3.000000000000004
 50
349.5181078410613
 51
100.4818921589389
  0
CIRCLE
  8
1
 62
7
 10
219.7033197286942
 20
5.0687414031961
 30
0
 40
3.25
  0
CIRCLE
  8
1
 62
7
 10
139.7033197286942
 20
5.0687414031961
 30
0
 40
5.25
  0
CIRCLE
  8
1
 62
7
 10
-37.59474514382891
 20
33.5687414031961
 30
0
 40
2.750000000000002
  0
CIRCLE
  8
1
 62
7
 10
-28.5437783446411
 20
24.51777460400829
 30
0
 40
2.750000000000001
  0
CIRCLE
  8
1
 62
7
 10
-46.64571194301672
 20
24.51777460400828
 30
0
 40
2.750000000000001
  0
CIRCLE
  8
1
 62
7
 10
219.7033197286942
 20
5.0687414031961
 30
0
 40
5.25
  0
TEXT
  8
1
 62
2
 10
210.524295771755
 20
-33.1440385370472
 30
0
 40
4
  1
UNION TOOL CO.
 41
0.9
  7
COMPLEX
  0
TEXT
  8
1
 62
2
 10
-42.83130982971869
 20
64.47261008914951
 30
0
 40
4
  1
MODEL : TGH4M
 41
0.9
  7
COMPLEX
  0
ENDSEC
  0
EOF
