  0
SECTION
  2
HEADER
  9
$ACADVER
  1
AC1009
  9
$INSBASE
 10
0
 20
0
  9
$EXTMIN
 10
143.7186350625516
 20
394.9708091692968
  9
$EXTMAX
 10
511.2673408664711
 20
500.2607094479737
  9
$LIMMIN
 10
143.7186350625516
 20
394.9708091692968
  9
$LIMMAX
 10
511.2673408664711
 20
500.2607094479737
  9
$VIEWCTR
 10
10
 20
10
  9
$VIEWSIZE
 40
10
  9
$SNAPMODE
 70
0
  9
$SNAPUNIT
 10
1
 20
1
  9
$SNAPBASE
 10
0
 20
0
  9
$SNAPANG
 50
0
  9
$SNAPSTYLE
 70
0
  9
$SNAPISOPAIR
 70
0
  9
$GRIDMODE
 70
0
  9
$GRIDUNIT
 10
0
 20
0
  9
$ORTHOMODE
 70
0
  9
$REGENMODE
 70
1
  9
$FILLMODE
 70
1
  9
$QTEXTMODE
 70
0
  9
$DRAGMODE
 70
2
  9
$LTSCALE
 40
1
  9
$OSMODE
 70
0
  9
$ATTMODE
 70
1
  9
$TEXTSIZE
 40
3.5
  9
$TRACEWID
 40
0.5
  9
$TEXTSTYLE
  7
STANDARD
  9
$CLAYER
  8
0
  9
$CELTYPE
  6
BYLAYER
  9
$CECOLOR
 62
256
  9
$DIMSCALE
 40
1
  9
$DIMASZ
 40
0.18
  9
$DIMEXO
 40
0.0625
  9
$DIMDLI
 40
0.38
  9
$DIMRND
 40
0
  9
$DIMDLE
 40
0
  9
$DIMEXE
 40
0.18
  9
$DIMTP
 40
0
  9
$DIMTM
 40
0
  9
$DIMTXT
 40
0.18
  9
$DIMCEN
 40
0.09
  9
$DIMTSZ
 40
0
  9
$DIMTOL
 70
0
  9
$DIMLIM
 70
0
  9
$DIMTIH
 70
1
  9
$DIMTOH
 70
1
  9
$DIMSE1
 70
0
  9
$DIMSE2
 70
0
  9
$DIMTAD
 70
0
  9
$DIMZIN
 70
0
  9
$DIMBLK
  1

  9
$DIMASO
 70
1
  9
$DIMSHO
 70
1
  9
$DIMPOST
  1

  9
$DIMAPOST
  1

  9
$DIMALT
 70
0
  9
$DIMALTD
 70
2
  9
$DIMALTF
 40
25.4
  9
$DIMLFAC
 40
1
  9
$DIMTOFL
 70
0
  9
$DIMTVP
 40
0
  9
$DIMTIX
 70
0
  9
$DIMSOXD
 70
0
  9
$DIMSAH
 70
0
  9
$DIMBLK1
  1

  9
$DIMBLK2
  1

  9
$DIMSTYLE
  2
*UNNAMED
  9
$DIMCLRD
 70
0
  9
$DIMCLRE
 70
0
  9
$DIMCLRT
 70
0
  9
$DIMTFAC
 40
1
  9
$DIMGAP
 40
0.09
  9
$LUNITS
 70
2
  9
$LUPREC
 70
4
  9
$AXISMODE
 70
0
  9
$AXISUNIT
 10
0
 20
0
  9
$SKETCHINC
 40
0.1
  9
$FILLETRAD
 40
2
  9
$AUNITS
 70
0
  9
$AUPREC
 70
0
  9
$MENU
  1
ACAD
  9
$ELEVATION
 40
0
  9
$THICKNESS
 40
0
  9
$VIEWDIR
 10
0
 20
0
 30
1
  9
$LIMCHECK
 70
0
  9
$BLIPMODE
 70
1
  9
$CHAMFERA
 40
0
  9
$CHAMFERB
 40
0
  9
$FASTZOOM
 70
1
  9
$SKPOLY
 70
0
  9
$ANGBASE
 50
0
  9
$ANGDIR
 70
0
  9
$PDMODE
 70
0
  9
$PDSIZE
 40
0
  9
$PLINEWID
 40
0
  9
$COORDS
 70
2
  0
ENDSEC
  0
SECTION
  2
TABLES
  0
TABLE
  2
DIMSTYLE
 70
0
  0
ENDTAB
  0
TABLE
  2
LTYPE
 70
9
  0
LTYPE
  2
CONTINUOUS
 70
64
  3
Solid line
 72
65
 73
0
 40
0
  0
LTYPE
  2
BORDER
 70
64
  3
__ __ . __ __ .
 72
65
 73
6
 40
16.92658513570682
 49
4.836167181630519
 49
-2.41808359081526
 49
4.836167181630519
 49
-2.41808359081526
 49
0
 49
-2.41808359081526
  0
LTYPE
  2
CENTER
 70
64
  3
____ _ ____ _
 72
65
 73
4
 40
19.34466872652208
 49
12.0904179540763
 49
-2.41808359081526
 49
2.41808359081526
 49
-2.41808359081526
  0
LTYPE
  2
DASHDOT
 70
64
  3
__ . __ . __ .
 72
65
 73
4
 40
9.672334363261038
 49
4.836167181630519
 49
-2.41808359081526
 49
0
 49
-2.41808359081526
  0
LTYPE
  2
DASHED
 70
64
  3
__ __ __ __ __
 72
65
 73
2
 40
7.254250772445779
 49
4.836167181630519
 49
-2.41808359081526
  0
LTYPE
  2
DIVIDE
 70
64
  3
__ . . __ . . 
 72
65
 73
6
 40
12.0904179540763
 49
4.836167181630519
 49
-2.41808359081526
 49
0
 49
-2.41808359081526
 49
0
 49
-2.41808359081526
  0
LTYPE
  2
DOT
 70
64
  3
..............
 72
65
 73
4
 40
4.836167181630519
 49
0
 49
-2.41808359081526
 49
0
 49
-2.41808359081526
  0
LTYPE
  2
HIDDEN
 70
64
  3
_ _ _ _ _ _ _
 72
65
 73
2
 40
3.62712538622289
 49
2.41808359081526
 49
-1.20904179540763
  0
LTYPE
  2
PHANTOM
 70
64
  3
_____ _ _ _____ _ _ 
 72
65
 73
6
 40
24.1808359081526
 49
12.0904179540763
 49
-2.41808359081526
 49
2.41808359081526
 49
-2.41808359081526
 49
2.41808359081526
 49
-2.41808359081526
  0
ENDTAB
  0
TABLE
  2
LAYER
 70
3
  0
LAYER
  2
1
 70
0
 62
7
  6
CONTINUOUS
  0
LAYER
  2
0
 70
0
 62
7
  6
CONTINUOUS
  0
ENDTAB
  0
TABLE
  2
STYLE
 70
4
  0
STYLE
  2
STANDARD
 70
0
 40
0
 41
1
 50
0
 71
0
 42
3.5
  3
txt
  4

  0
STYLE
  2
SIMPLEX
 70
0
 40
0
 41
1
 50
0
 71
0
 42
3.5
  3
simplex
  4

  0
STYLE
  2
COMPLEX
 70
0
 40
0
 41
1
 50
0
 71
0
 42
3.5
  3
complex
  4

  0
STYLE
  2
ITALIC
 70
0
 40
0
 41
1
 50
0
 71
0
 42
3.5
  3
italic
  4

  0
ENDTAB
  0
TABLE
  2
VIEW
 70
0
  0
ENDTAB
  0
ENDSEC
  0
SECTION
  2
BLOCKS
  0
ENDSEC
  0
SECTION
  2
ENTITIES
  0
LINE
  8
1
 62
3
  6
PHANTOM
 10
159.9393818781365
 20
463.4181497132577
 30
0
 11
168.098070904956
 21
463.4181497132577
 31
0
  0
LINE
  8
1
 62
3
  6
PHANTOM
 10
158.8345594057547
 20
454.3671829140699
 30
0
 11
150.6758703789352
 21
454.3671829140699
 31
0
  0
LINE
  8
1
 62
3
  6
PHANTOM
 10
177.3615824041573
 20
454.3671829140699
 30
0
 11
169.3162085027103
 21
454.3671829140699
 31
0
  0
LINE
  8
1
 62
3
  6
PHANTOM
 10
173.0202427931349
 20
457.8552418975087
 30
0
 11
173.0202427931349
 21
450.5464163109829
 31
0
  0
LINE
  8
1
 62
3
  6
PHANTOM
 10
154.9183091947593
 20
458.0252145855675
 30
0
 11
154.9183091947593
 21
450.6880602176985
 31
0
  0
LINE
  8
1
 62
3
  6
PHANTOM
 10
163.9692759939471
 20
467.7136578049156
 30
0
 11
163.9692759939471
 21
459.4133248713804
 31
0
  0
LINE
  8
1
 62
3
  6
CENTER
 10
421.2673408664703
 20
442.9937803803168
 30
0
 11
421.2673408664703
 21
426.9181497132577
 31
0
  0
LINE
  8
1
 62
3
  6
CENTER
 10
411.9302062191597
 20
434.9181497132577
 30
0
 11
429.5654571663305
 21
434.9181497132577
 31
0
  0
LINE
  8
1
 62
3
  6
CENTER
 10
376.4621747232876
 20
455.9181497132577
 30
0
 11
388.2420572573482
 21
455.9181497132577
 31
0
  0
LINE
  8
1
 62
3
  6
CENTER
 10
382.2358762991352
 20
461.0677939525831
 30
0
 11
382.2358762991352
 21
450.5438547769427
 31
0
  0
LINE
  8
1
 62
3
  6
CENTER
 10
356.4621747232876
 20
455.9181497132577
 30
0
 11
368.2420572573482
 21
455.9181497132577
 31
0
  0
LINE
  8
1
 62
3
  6
CENTER
 10
362.2358762991352
 20
461.0677939525831
 30
0
 11
362.2358762991352
 21
450.5438547769427
 31
0
  0
LINE
  8
1
 62
7
 10
221.2673408664702
 20
447.4181497132577
 30
0
 11
221.2673408664702
 21
426.9181497132577
 31
0
  0
LINE
  8
1
 62
7
 10
221.2673408664702
 20
447.4181497132577
 30
0
 11
456.8247547463128
 21
447.4181497132577
 31
0
  0
LINE
  8
1
 62
3
  6
CENTER
 10
144.3039025960843
 20
434.9181497132577
 30
0
 11
184.6161597354321
 21
434.9181497132577
 31
0
  0
LINE
  8
1
 62
7
 10
155.4937420880142
 20
447.4181497132577
 30
0
 11
152.4692759939471
 21
447.4181497132577
 31
0
  0
LINE
  8
1
 62
7
 10
155.4937420880142
 20
447.4181497132577
 30
0
 11
158.1392759939479
 21
444.7726158073281
 31
0
  0
LINE
  8
1
 62
7
 10
158.1392759939479
 20
444.7726158073281
 30
0
 11
160.7848098998802
 21
447.4181497132577
 31
0
  0
LINE
  8
1
 62
7
 10
160.7848098998802
 20
447.4181497132577
 30
0
 11
167.153742088015
 21
447.4181497132577
 31
0
  0
LINE
  8
1
 62
7
 10
167.153742088015
 20
447.4181497132577
 30
0
 11
169.7992759939475
 21
444.7726158073279
 31
0
  0
LINE
  8
1
 62
7
 10
169.7992759939475
 20
444.7726158073279
 30
0
 11
172.4448098998801
 21
447.4181497132577
 31
0
  0
LINE
  8
1
 62
7
 10
176.4692759939471
 20
427.9181497132577
 30
0
 11
176.4692759939471
 21
446.4181497132577
 31
0
  0
LINE
  8
1
 62
7
 10
151.4692759939471
 20
427.9181497132577
 30
0
 11
151.4692759939471
 21
446.4181497132577
 31
0
  0
LINE
  8
1
 62
7
 10
175.4692759939471
 20
426.9181497132577
 30
0
 11
152.4692759939471
 21
426.9181497132577
 31
0
  0
LINE
  8
1
 62
7
 10
175.4692759939471
 20
426.9181497132577
 30
0
 11
176.4692759939471
 21
427.9181497132577
 31
0
  0
LINE
  8
1
 62
7
 10
152.4692759939471
 20
426.9181497132577
 30
0
 11
151.4692759939471
 21
427.9181497132577
 31
0
  0
LINE
  8
1
 62
7
 10
151.4692759939471
 20
446.4181497132577
 30
0
 11
152.4692759939471
 21
447.4181497132577
 31
0
  0
LINE
  8
1
 62
7
 10
176.4692759939471
 20
446.4181497132577
 30
0
 11
175.4692759939471
 21
447.4181497132577
 31
0
  0
LINE
  8
1
 62
7
 10
175.4216713281221
 20
448.3181497132737
 30
0
 11
176.4692759939471
 21
449.3657543791032
 31
0
  0
LINE
  8
1
 62
7
 10
176.4692759939471
 20
461.4181497132577
 30
0
 11
175.565827205407
 21
462.3215985018014
 31
0
  0
LINE
  8
1
 62
7
 10
175.565827205407
 20
462.3215985018014
 30
0
 11
175.2655746737116
 21
462.0213459701048
 31
0
  0
LINE
  8
1
 62
7
 10
171.8888719432371
 20
465.9985537639714
 30
0
 11
170.9692759939471
 21
466.9181497132577
 31
0
  0
LINE
  8
1
 62
7
 10
170.9692759939471
 20
466.9181497132577
 30
0
 11
156.9692759939471
 21
466.9181497132577
 31
0
  0
LINE
  8
1
 62
7
 10
156.9692759939471
 20
466.9181497132577
 30
0
 11
156.0496800446581
 21
465.9985537639714
 31
0
  0
LINE
  8
1
 62
7
 10
156.0496800446581
 20
465.9985537639714
 30
0
 11
156.349932576353
 21
465.6983012322752
 31
0
  0
LINE
  8
1
 62
7
 10
152.3727247824882
 20
462.3215985018014
 30
0
 11
151.4692759939471
 21
461.4181497132577
 31
0
  0
LINE
  8
1
 62
7
 10
151.4692759939471
 20
449.3657543791032
 30
0
 11
152.5168806597721
 21
448.3181497132737
 31
0
  0
LINE
  8
1
 62
7
 10
152.5168806597721
 20
448.3181497132737
 30
0
 11
154.2084678925257
 21
448.3181497132737
 31
0
  0
LINE
  8
1
 62
7
 10
160.1692759939469
 20
448.3181497132737
 30
0
 11
167.7692759939473
 21
448.3181497132737
 31
0
  0
LINE
  8
1
 62
7
 10
154.2084678925257
 20
448.3181497132737
 30
0
 11
154.5299361657127
 21
448.6396179864588
 31
0
  0
LINE
  8
1
 62
7
 10
175.4216713281221
 20
448.3181497132737
 30
0
 11
173.7300840953685
 21
448.3181497132737
 31
0
  0
LINE
  8
1
 62
7
 10
173.7300840953685
 20
448.3181497132737
 30
0
 11
173.4086158221815
 21
448.6396179864588
 31
0
  0
LINE
  8
1
 62
3
  6
CENTER
 10
143.7186350625516
 20
455.9181497132577
 30
0
 11
184.8708681113294
 21
455.9181497132577
 31
0
  0
LINE
  8
1
 62
7
 10
151.4692759939471
 20
461.4181497132577
 30
0
 11
151.4692759939471
 21
449.3657543791032
 31
0
  0
LINE
  8
1
 62
7
 10
176.4692759939471
 20
461.4181497132577
 30
0
 11
176.4692759939471
 21
449.3657543791032
 31
0
  0
LINE
  8
1
 62
7
 10
461.0814658362193
 20
447.4181497132577
 30
0
 11
511.2673408664703
 21
447.4181497132577
 31
0
  0
LINE
  8
1
 62
2
  6
DIVIDE
 10
459.9185017375782
 20
455.9181497132577
 30
0
 11
446.1293263601363
 21
418.0327017308428
 31
0
  0
LINE
  8
1
 62
2
  6
DIVIDE
 10
464.1752128274817
 20
455.9181497132577
 30
0
 11
450.324336889577
 21
417.8631808342016
 31
0
  0
LINE
  8
1
 62
3
  6
CENTER
 10
471.2673408664703
 20
443.1432316595437
 30
0
 11
471.2673408664711
 21
426.9181497132577
 31
0
  0
LINE
  8
1
 62
7
 10
511.2673408664711
 20
426.9181497132577
 30
0
 11
453.6200760337603
 21
426.9181497132577
 31
0
  0
LINE
  8
1
 62
3
  6
CENTER
 10
462.809819688148
 20
434.9181497132577
 30
0
 11
480.5945219145312
 21
434.9181497132577
 31
0
  0
LINE
  8
1
 62
3
  6
CENTER
 10
341.2673408664703
 20
442.9937803803168
 30
0
 11
341.2673408664703
 21
426.9181497132577
 31
0
  0
LINE
  8
1
 62
3
  6
CENTER
 10
331.9302062191597
 20
434.9181497132577
 30
0
 11
349.5654571663305
 21
434.9181497132577
 31
0
  0
LINE
  8
1
 62
7
 10
221.2673408664702
 20
426.9181497132577
 30
0
 11
449.3633649438565
 21
426.9181497132577
 31
0
  0
LINE
  8
1
 62
3
  6
CENTER
 10
261.2673408664702
 20
443.1432316595437
 30
0
 11
261.2673408664702
 21
428.1981037381975
 31
0
  0
LINE
  8
1
 62
3
  6
CENTER
 10
252.4221256776761
 20
434.9181497132577
 30
0
 11
270.8046330209142
 21
434.9181497132577
 31
0
  0
LINE
  8
1
 62
7
 10
390.7358762991352
 20
466.9181497132577
 30
0
 11
390.7358762991352
 21
447.4181497132577
 31
0
  0
LINE
  8
1
 62
7
 10
390.7358762991352
 20
466.618149713262
 30
0
 11
408.7358762991352
 21
466.618149713262
 31
0
  0
LINE
  8
1
 62
7
 10
408.7358762991352
 20
466.618149713262
 30
0
 11
408.7358762991352
 21
447.4181497132577
 31
0
  0
LINE
  8
1
 62
7
 10
390.7358762991352
 20
466.9181497132577
 30
0
 11
273.7358762991352
 21
466.9181497132577
 31
0
  0
LINE
  8
1
 62
7
 10
273.7358762991352
 20
466.9181497132577
 30
0
 11
273.7358762991352
 21
447.4181497132577
 31
0
  0
LINE
  8
1
 62
7
 10
255.7358762991351
 20
466.618149713262
 30
0
 11
255.7358762991351
 21
447.4181497132577
 31
0
  0
LINE
  8
1
 62
7
 10
255.7358762991351
 20
448.3181497132737
 30
0
 11
408.7358762991352
 21
448.3181497132737
 31
0
  0
LINE
  8
1
 62
7
 10
255.7358762991351
 20
466.618149713262
 30
0
 11
273.7358762991352
 21
466.618149713262
 31
0
  0
LINE
  8
1
 62
7
 10
260.7358762991351
 20
462.3215985018014
 30
0
 11
273.7358762991352
 21
462.3215985018014
 31
0
  0
LINE
  8
1
 62
7
 10
260.7358762991351
 20
448.3181497132737
 30
0
 11
260.7358762991351
 21
466.618149713262
 31
0
  0
LINE
  8
1
 62
7
 10
403.7358762991352
 20
466.618149713262
 30
0
 11
403.7358762991352
 21
448.3181497132737
 31
0
  0
LINE
  8
1
 62
7
 10
390.7358762991352
 20
462.3215985018014
 30
0
 11
403.7358762991352
 21
462.3215985018014
 31
0
  0
LINE
  8
1
 62
3
  6
CENTER
 10
282.2358762991352
 20
461.0677939525831
 30
0
 11
282.2358762991352
 21
450.5438547769427
 31
0
  0
LINE
  8
1
 62
3
  6
CENTER
 10
276.4621747232876
 20
455.9181497132577
 30
0
 11
288.2420572573482
 21
455.9181497132577
 31
0
  0
LINE
  8
1
 62
3
  6
CENTER
 10
296.4621747232876
 20
455.9181497132577
 30
0
 11
308.2420572573481
 21
455.9181497132577
 31
0
  0
LINE
  8
1
 62
3
  6
CENTER
 10
302.2358762991352
 20
461.0677939525831
 30
0
 11
302.2358762991352
 21
450.5438547769427
 31
0
  0
LINE
  8
1
 62
3
  6
CENTER
 10
316.4621747232876
 20
455.9181497132577
 30
0
 11
328.2420572573481
 21
455.9181497132577
 31
0
  0
LINE
  8
1
 62
3
  6
CENTER
 10
322.2358762991352
 20
461.0677939525831
 30
0
 11
322.2358762991352
 21
450.5438547769427
 31
0
  0
LINE
  8
1
 62
3
  6
CENTER
 10
336.4621747232876
 20
455.9181497132577
 30
0
 11
348.2420572573482
 21
455.9181497132577
 31
0
  0
LINE
  8
1
 62
3
  6
CENTER
 10
342.2358762991352
 20
461.0677939525831
 30
0
 11
342.2358762991352
 21
450.5438547769427
 31
0
  0
LINE
  8
1
 62
7
 10
511.2673408664703
 20
447.4181497132577
 30
0
 11
511.2673408664711
 21
426.9181497132577
 31
0
  0
LINE
  8
1
 62
7
 10
157.1103402164376
 20
466.4587088723598
 30
0
 11
151.8777500356572
 21
461.2261186915794
 31
0
  0
LINE
  8
1
 62
7
 10
151.8777500356572
 20
461.2261186915794
 30
0
 11
151.8777500356571
 21
451.1852023987304
 31
0
  0
LINE
  8
1
 62
7
 10
151.8777500356571
 20
451.1852023987304
 30
0
 11
154.4233344479287
 21
448.6396179864588
 31
0
  0
LINE
  8
1
 62
7
 10
154.4233344479287
 20
448.6396179864588
 30
0
 11
173.5152175399655
 21
448.6396179864588
 31
0
  0
LINE
  8
1
 62
7
 10
176.0608019522371
 20
451.1852023987304
 30
0
 11
176.0608019522371
 21
461.2261186915794
 31
0
  0
LINE
  8
1
 62
7
 10
172.383846690067
 20
464.9030739537494
 30
0
 11
166.2320176937441
 21
458.7512449574264
 31
0
  0
LINE
  8
1
 62
7
 10
170.8282117714566
 20
466.4587088723598
 30
0
 11
176.0608019522371
 21
461.2261186915794
 31
0
  0
LINE
  8
1
 62
7
 10
166.2320176937441
 20
458.7512449574264
 30
0
 11
164.5150502952248
 21
460.4682123559456
 31
0
  0
LINE
  8
1
 62
7
 10
161.0193386366351
 20
463.9639240145354
 30
0
 11
158.5245537788107
 21
466.4587088723598
 31
0
  0
LINE
  8
1
 62
7
 10
157.1103402164376
 20
466.4587088723598
 30
0
 11
170.8282117714566
 21
466.4587088723598
 31
0
  0
LINE
  8
1
 62
7
 10
174.5051670336267
 20
462.7817536101898
 30
0
 11
168.3533380373037
 21
456.6299246138668
 31
0
  0
LINE
  8
1
 62
7
 10
168.3533380373037
 20
456.6299246138668
 30
0
 11
170.070305435823
 21
454.9129572153476
 31
0
  0
LINE
  8
1
 62
7
 10
173.5660170944126
 20
451.4172455567579
 30
0
 11
174.9294311023386
 21
450.0538315488319
 31
0
  0
LINE
  8
1
 62
7
 10
176.0608019522371
 20
451.1852023987304
 30
0
 11
173.5152175399655
 21
448.6396179864588
 31
0
  0
LINE
  8
1
 62
7
 10
151.8777500356572
 20
459.8119051292063
 30
0
 11
154.3725348934816
 21
457.3171202713818
 31
0
  0
LINE
  8
1
 62
7
 10
157.8682465520713
 20
453.8214086127921
 30
0
 11
163.0500371784046
 21
448.6396179864588
 31
0
  0
LINE
  8
1
 62
7
 10
171.5886194115417
 20
465.6983012322747
 30
0
 11
171.8888719432371
 21
465.9985537639714
 31
0
  0
LINE
  8
1
 62
7
 10
152.672977314183
 20
462.0213459701052
 30
0
 11
152.3727247824882
 21
462.3215985018014
 31
0
  0
LINE
  8
1
 62
7
 10
168.0907442671346
 20
448.6396179864588
 30
0
 11
167.7692759939473
 21
448.3181497132737
 31
0
  0
LINE
  8
1
 62
7
 10
159.8478077207596
 20
448.6396179864588
 30
0
 11
160.1692759939469
 21
448.3181497132737
 31
0
  0
LINE
  8
1
 62
7
 10
163.9692759939471
 20
464.8615253862317
 30
0
 11
162.7192759939471
 21
464.1398375497447
 31
0
  0
LINE
  8
1
 62
7
 10
162.7192759939471
 20
464.1398375497447
 30
0
 11
162.7192759939471
 21
462.6964618767706
 31
0
  0
LINE
  8
1
 62
7
 10
162.7192759939471
 20
462.6964618767706
 30
0
 11
163.9692759939471
 21
461.9747740402836
 31
0
  0
LINE
  8
1
 62
7
 10
163.9692759939471
 20
461.9747740402836
 30
0
 11
165.2192759939471
 21
462.6964618767706
 31
0
  0
LINE
  8
1
 62
7
 10
165.2192759939471
 20
462.6964618767706
 30
0
 11
165.2192759939471
 21
464.1398375497447
 31
0
  0
LINE
  8
1
 62
7
 10
165.2192759939471
 20
464.1398375497447
 30
0
 11
163.9692759939471
 21
464.8615253862317
 31
0
  0
LINE
  8
1
 62
7
 10
173.0202427931349
 20
455.8105585870439
 30
0
 11
171.7702427931349
 21
455.0888707505569
 31
0
  0
LINE
  8
1
 62
7
 10
171.7702427931349
 20
455.0888707505569
 30
0
 11
171.7702427931349
 21
453.6454950775828
 31
0
  0
LINE
  8
1
 62
7
 10
171.7702427931349
 20
453.6454950775828
 30
0
 11
173.0202427931349
 21
452.9238072410958
 31
0
  0
LINE
  8
1
 62
7
 10
173.0202427931349
 20
452.9238072410958
 30
0
 11
174.2702427931349
 21
453.6454950775828
 31
0
  0
LINE
  8
1
 62
7
 10
174.2702427931349
 20
453.6454950775828
 30
0
 11
174.2702427931349
 21
455.0888707505569
 31
0
  0
LINE
  8
1
 62
7
 10
174.2702427931349
 20
455.0888707505569
 30
0
 11
173.0202427931349
 21
455.8105585870439
 31
0
  0
LINE
  8
1
 62
7
 10
154.9183091947593
 20
455.8105585870439
 30
0
 11
153.6683091947593
 21
455.0888707505569
 31
0
  0
LINE
  8
1
 62
7
 10
153.6683091947593
 20
455.0888707505569
 30
0
 11
153.6683091947593
 21
453.6454950775828
 31
0
  0
LINE
  8
1
 62
7
 10
153.6683091947593
 20
453.6454950775828
 30
0
 11
154.9183091947593
 21
452.9238072410958
 31
0
  0
LINE
  8
1
 62
7
 10
154.9183091947593
 20
452.9238072410958
 30
0
 11
156.1683091947593
 21
453.6454950775828
 31
0
  0
LINE
  8
1
 62
7
 10
156.1683091947593
 20
453.6454950775828
 30
0
 11
156.1683091947593
 21
455.0888707505569
 31
0
  0
LINE
  8
1
 62
7
 10
156.1683091947593
 20
455.0888707505569
 30
0
 11
154.9183091947593
 21
455.8105585870439
 31
0
  0
LINE
  8
1
 62
7
 10
172.4448098998801
 20
447.4181497132577
 30
0
 11
175.4692759939471
 21
447.4181497132577
 31
0
  0
CIRCLE
  8
1
 62
7
 10
421.2673408664703
 20
434.9181497132577
 30
0
 40
3.25
  0
CIRCLE
  8
1
 62
7
 10
382.2358762991352
 20
455.9181497132577
 30
0
 40
2.5
  0
CIRCLE
  8
1
 62
3
 10
382.2358762991352
 20
455.9181497132577
 30
0
 40
3
  0
CIRCLE
  8
1
 62
7
 10
362.2358762991352
 20
455.9181497132577
 30
0
 40
2.5
  0
CIRCLE
  8
1
 62
3
 10
362.2358762991352
 20
455.9181497132577
 30
0
 40
3
  0
CIRCLE
  8
1
 62
7
 10
261.2673408664702
 20
434.9181497132577
 30
0
 40
5.25
  0
CIRCLE
  8
1
 62
7
 10
261.2673408664702
 20
434.9181497132577
 30
0
 40
3.25
  0
CIRCLE
  8
1
 62
7
 10
341.2673408664703
 20
434.9181497132577
 30
0
 40
3.25
  0
CIRCLE
  8
1
 62
7
 10
471.2673408664703
 20
434.9181497132577
 30
0
 40
5.25
  0
CIRCLE
  8
1
 62
7
 10
471.2673408664703
 20
434.9181497132577
 30
0
 40
3.25
  0
CIRCLE
  8
1
 62
3
 10
282.2358762991352
 20
455.9181497132577
 30
0
 40
3
  0
CIRCLE
  8
1
 62
7
 10
282.2358762991352
 20
455.9181497132577
 30
0
 40
2.5
  0
CIRCLE
  8
1
 62
7
 10
302.2358762991352
 20
455.9181497132577
 30
0
 40
2.5
  0
CIRCLE
  8
1
 62
3
 10
302.2358762991352
 20
455.9181497132577
 30
0
 40
3
  0
CIRCLE
  8
1
 62
7
 10
322.2358762991352
 20
455.9181497132577
 30
0
 40
2.5
  0
CIRCLE
  8
1
 62
3
 10
322.2358762991352
 20
455.9181497132577
 30
0
 40
3
  0
CIRCLE
  8
1
 62
7
 10
342.2358762991352
 20
455.9181497132577
 30
0
 40
2.5
  0
CIRCLE
  8
1
 62
3
 10
342.2358762991352
 20
455.9181497132577
 30
0
 40
3
  0
ARC
  8
1
 62
7
 10
163.9692759939471
 20
463.4181497132577
 30
0
 40
3.000000000000003
 50
169.5181078410622
 51
280.4818921589378
  0
ARC
  8
1
 62
7
 10
173.0202427931349
 20
454.3671829140699
 30
0
 40
2.999999999999929
 50
169.5181078410608
 51
280.4818921589379
  0
ARC
  8
1
 62
7
 10
154.9183091947593
 20
454.3671829140699
 30
0
 40
3.000000000000023
 50
349.5181078410601
 51
100.4818921589386
  0
CIRCLE
  8
1
 62
7
 10
421.2673408664703
 20
434.9181497132577
 30
0
 40
5.25
  0
CIRCLE
  8
1
 62
7
 10
341.2673408664703
 20
434.9181497132577
 30
0
 40
5.25
  0
CIRCLE
  8
1
 62
7
 10
163.9692759939471
 20
463.4181497132577
 30
0
 40
2.750000000000041
  0
CIRCLE
  8
1
 62
7
 10
173.0202427931349
 20
454.3671829140699
 30
0
 40
2.749999999999925
  0
CIRCLE
  8
1
 62
7
 10
154.9183091947593
 20
454.3671829140699
 30
0
 40
2.749999999999952
  0
TEXT
  8
1
 62
2
 10
156.8557486353925
 20
496.2607094479737
 30
0
 40
4
  1
MODEL : TGH4L
 41
0.9
  7
COMPLEX
  0
TEXT
  8
1
 62
2
 10
422.045320233574
 20
394.9708091692968
 30
0
 40
4
  1
UNION TOOL CO.
 41
0.9
  7
COMPLEX
  0
ENDSEC
  0
EOF
