  0
SECTION
  2
HEADER
  9
$ACADVER
  1
AC1009
  9
$INSBASE
 10
0
 20
0
  9
$EXTMIN
 10
-670.25170505474
 20
-348.8510859425896
  9
$EXTMAX
 10
-476.8063078654246
 20
-252.0759631496096
  9
$LIMMIN
 10
-670.25170505474
 20
-348.8510859425896
  9
$LIMMAX
 10
-476.8063078654246
 20
-252.0759631496096
  9
$VIEWCTR
 10
10
 20
10
  9
$VIEWSIZE
 40
10
  9
$SNAPMODE
 70
0
  9
$SNAPUNIT
 10
1
 20
1
  9
$SNAPBASE
 10
0
 20
0
  9
$SNAPANG
 50
0
  9
$SNAPSTYLE
 70
0
  9
$SNAPISOPAIR
 70
0
  9
$GRIDMODE
 70
0
  9
$GRIDUNIT
 10
0
 20
0
  9
$ORTHOMODE
 70
0
  9
$REGENMODE
 70
1
  9
$FILLMODE
 70
1
  9
$QTEXTMODE
 70
0
  9
$DRAGMODE
 70
2
  9
$LTSCALE
 40
1
  9
$OSMODE
 70
0
  9
$ATTMODE
 70
1
  9
$TEXTSIZE
 40
3.5
  9
$TRACEWID
 40
0.5
  9
$TEXTSTYLE
  7
STANDARD
  9
$CLAYER
  8
0
  9
$CELTYPE
  6
BYLAYER
  9
$CECOLOR
 62
256
  9
$DIMSCALE
 40
1
  9
$DIMASZ
 40
0.18
  9
$DIMEXO
 40
0.0625
  9
$DIMDLI
 40
0.38
  9
$DIMRND
 40
0
  9
$DIMDLE
 40
0
  9
$DIMEXE
 40
0.18
  9
$DIMTP
 40
0
  9
$DIMTM
 40
0
  9
$DIMTXT
 40
0.18
  9
$DIMCEN
 40
0.09
  9
$DIMTSZ
 40
0
  9
$DIMTOL
 70
0
  9
$DIMLIM
 70
0
  9
$DIMTIH
 70
1
  9
$DIMTOH
 70
1
  9
$DIMSE1
 70
0
  9
$DIMSE2
 70
0
  9
$DIMTAD
 70
0
  9
$DIMZIN
 70
0
  9
$DIMBLK
  1

  9
$DIMASO
 70
1
  9
$DIMSHO
 70
1
  9
$DIMPOST
  1

  9
$DIMAPOST
  1

  9
$DIMALT
 70
0
  9
$DIMALTD
 70
2
  9
$DIMALTF
 40
25.4
  9
$DIMLFAC
 40
1
  9
$DIMTOFL
 70
0
  9
$DIMTVP
 40
0
  9
$DIMTIX
 70
0
  9
$DIMSOXD
 70
0
  9
$DIMSAH
 70
0
  9
$DIMBLK1
  1

  9
$DIMBLK2
  1

  9
$DIMSTYLE
  2
*UNNAMED
  9
$DIMCLRD
 70
0
  9
$DIMCLRE
 70
0
  9
$DIMCLRT
 70
0
  9
$DIMTFAC
 40
1
  9
$DIMGAP
 40
0.09
  9
$LUNITS
 70
2
  9
$LUPREC
 70
4
  9
$AXISMODE
 70
0
  9
$AXISUNIT
 10
0
 20
0
  9
$SKETCHINC
 40
0.1
  9
$FILLETRAD
 40
2
  9
$AUNITS
 70
0
  9
$AUPREC
 70
0
  9
$MENU
  1
ACAD
  9
$ELEVATION
 40
0
  9
$THICKNESS
 40
0
  9
$VIEWDIR
 10
0
 20
0
 30
1
  9
$LIMCHECK
 70
0
  9
$BLIPMODE
 70
1
  9
$CHAMFERA
 40
0
  9
$CHAMFERB
 40
0
  9
$FASTZOOM
 70
1
  9
$SKPOLY
 70
0
  9
$ANGBASE
 50
0
  9
$ANGDIR
 70
0
  9
$PDMODE
 70
0
  9
$PDSIZE
 40
0
  9
$PLINEWID
 40
0
  9
$COORDS
 70
2
  0
ENDSEC
  0
SECTION
  2
TABLES
  0
TABLE
  2
DIMSTYLE
 70
0
  0
ENDTAB
  0
TABLE
  2
LTYPE
 70
9
  0
LTYPE
  2
CONTINUOUS
 70
64
  3
Solid line
 72
65
 73
0
 40
0
  0
LTYPE
  2
BORDER
 70
64
  3
__ __ . __ __ .
 72
65
 73
6
 40
8.908669607402683
 49
2.545334173543624
 49
-1.272667086771812
 49
2.545334173543624
 49
-1.272667086771812
 49
0
 49
-1.272667086771812
  0
LTYPE
  2
CENTER
 70
64
  3
____ _ ____ _
 72
65
 73
4
 40
10.18133669417449
 49
6.363335433859058
 49
-1.272667086771812
 49
1.272667086771812
 49
-1.272667086771812
  0
LTYPE
  2
DASHDOT
 70
64
  3
__ . __ . __ .
 72
65
 73
4
 40
5.090668347087247
 49
2.545334173543624
 49
-1.272667086771812
 49
0
 49
-1.272667086771812
  0
LTYPE
  2
DASHED
 70
64
  3
__ __ __ __ __
 72
65
 73
2
 40
3.818001260315435
 49
2.545334173543624
 49
-1.272667086771812
  0
LTYPE
  2
DIVIDE
 70
64
  3
__ . . __ . . 
 72
65
 73
6
 40
6.363335433859058
 49
2.545334173543624
 49
-1.272667086771812
 49
0
 49
-1.272667086771812
 49
0
 49
-1.272667086771812
  0
LTYPE
  2
DOT
 70
64
  3
..............
 72
65
 73
4
 40
2.545334173543624
 49
0
 49
-1.272667086771812
 49
0
 49
-1.272667086771812
  0
LTYPE
  2
HIDDEN
 70
64
  3
_ _ _ _ _ _ _
 72
65
 73
2
 40
1.909000630157718
 49
1.272667086771812
 49
-0.6363335433859059
  0
LTYPE
  2
PHANTOM
 70
64
  3
_____ _ _ _____ _ _ 
 72
65
 73
6
 40
12.72667086771812
 49
6.363335433859058
 49
-1.272667086771812
 49
1.272667086771812
 49
-1.272667086771812
 49
1.272667086771812
 49
-1.272667086771812
  0
ENDTAB
  0
TABLE
  2
LAYER
 70
3
  0
LAYER
  2
1
 70
0
 62
7
  6
CONTINUOUS
  0
LAYER
  2
0
 70
0
 62
7
  6
CONTINUOUS
  0
ENDTAB
  0
TABLE
  2
STYLE
 70
4
  0
STYLE
  2
STANDARD
 70
0
 40
0
 41
1
 50
0
 71
0
 42
3.5
  3
txt
  4

  0
STYLE
  2
SIMPLEX
 70
0
 40
0
 41
1
 50
0
 71
0
 42
3.5
  3
simplex
  4

  0
STYLE
  2
COMPLEX
 70
0
 40
0
 41
1
 50
0
 71
0
 42
3.5
  3
complex
  4

  0
STYLE
  2
ITALIC
 70
0
 40
0
 41
1
 50
0
 71
0
 42
3.5
  3
italic
  4

  0
ENDTAB
  0
TABLE
  2
VIEW
 70
0
  0
ENDTAB
  0
ENDSEC
  0
SECTION
  2
BLOCKS
  0
ENDSEC
  0
SECTION
  2
ENTITIES
  0
LINE
  8
1
 62
3
  6
CENTER
 10
-501.579528573802
 20
-303.6090698835648
 30
0
 11
-491.6305682204537
 21
-303.6090698835648
 31
0
  0
LINE
  8
1
 62
3
  6
CENTER
 10
-496.8063078654241
 20
-299.1105841862851
 30
0
 11
-496.8063078654241
 21
-310.1932931250477
 31
0
  0
LINE
  8
1
 62
7
 10
-609.4150828549595
 20
-297.1090698835648
 30
0
 11
-510.586260200061
 21
-297.1090698835648
 31
0
  0
LINE
  8
1
 62
7
 10
-609.4150828549597
 20
-308.1090698835646
 30
0
 11
-512.5258569878541
 21
-308.1090698835648
 31
0
  0
LINE
  8
1
 62
7
 10
-609.4150828549595
 20
-297.1090698835648
 30
0
 11
-609.4150828549597
 21
-308.1090698835646
 31
0
  0
LINE
  8
1
 62
7
 10
-476.8063078654249
 20
-297.1090698835648
 30
0
 11
-476.8063078654246
 21
-308.1090698835648
 31
0
  0
LINE
  8
1
 62
3
  6
CENTER
 10
-536.2164153434907
 20
-295.5090698835646
 30
0
 11
-536.2164153434907
 21
-290.7090698835646
 31
0
  0
LINE
  8
1
 62
3
  6
CENTER
 10
-538.6164153434909
 20
-293.1090698835648
 30
0
 11
-533.8164153434906
 21
-293.1090698835648
 31
0
  0
LINE
  8
1
 62
3
  6
CENTER
 10
-551.2164153434907
 20
-295.5090698835646
 30
0
 11
-551.2164153434907
 21
-290.7090698835646
 31
0
  0
LINE
  8
1
 62
3
  6
CENTER
 10
-553.6164153434909
 20
-293.1090698835648
 30
0
 11
-548.8164153434906
 21
-293.1090698835648
 31
0
  0
LINE
  8
1
 62
3
  6
CENTER
 10
-566.2164153434907
 20
-295.5090698835646
 30
0
 11
-566.2164153434907
 21
-290.7090698835646
 31
0
  0
LINE
  8
1
 62
3
  6
CENTER
 10
-568.6164153434909
 20
-293.1090698835648
 30
0
 11
-563.8164153434906
 21
-293.1090698835648
 31
0
  0
LINE
  8
1
 62
7
 10
-585.2164153434909
 20
-296.8090698835645
 30
0
 11
-517.2164153434907
 21
-296.8090698835645
 31
0
  0
LINE
  8
1
 62
7
 10
-520.2164153434907
 20
-296.8090698835645
 30
0
 11
-520.2164153434907
 21
-288.1090698835648
 31
0
  0
LINE
  8
1
 62
7
 10
-529.2164153434907
 20
-288.1090698835648
 30
0
 11
-529.2164153434907
 21
-297.1090698835648
 31
0
  0
LINE
  8
1
 62
7
 10
-529.2164153434907
 20
-289.4834579470783
 30
0
 11
-520.2164153434907
 21
-289.4834579470783
 31
0
  0
LINE
  8
1
 62
7
 10
-517.2164153434907
 20
-288.1090698835648
 30
0
 11
-517.2164153434907
 21
-296.8090698835645
 31
0
  0
LINE
  8
1
 62
7
 10
-582.2164153434907
 20
-296.8090698835645
 30
0
 11
-582.2164153434907
 21
-288.1090698835648
 31
0
  0
LINE
  8
1
 62
7
 10
-582.2164153434907
 20
-289.4834579470783
 30
0
 11
-573.2164153434907
 21
-289.4834579470783
 31
0
  0
LINE
  8
1
 62
7
 10
-585.2164153434909
 20
-288.1090698835648
 30
0
 11
-517.2164153434907
 21
-288.1090698835648
 31
0
  0
LINE
  8
1
 62
7
 10
-585.2164153434909
 20
-288.1090698835648
 30
0
 11
-585.2164153434909
 21
-296.8090698835645
 31
0
  0
LINE
  8
1
 62
7
 10
-573.2164153434907
 20
-288.1090698835648
 30
0
 11
-573.2164153434907
 21
-297.1090698835648
 31
0
  0
LINE
  8
1
 62
3
  6
CENTER
 10
-549.4150828549596
 20
-299.1105841862851
 30
0
 11
-549.4150828549596
 21
-310.1932931250477
 31
0
  0
LINE
  8
1
 62
3
  6
CENTER
 10
-589.4150828549597
 20
-299.4811566401946
 30
0
 11
-589.4150828549597
 21
-309.5284258071098
 31
0
  0
LINE
  8
1
 62
3
  6
CENTER
 10
-554.4606040798906
 20
-303.6090698835648
 30
0
 11
-544.2636660465015
 21
-303.6090698835648
 31
0
  0
LINE
  8
1
 62
3
  6
CENTER
 10
-593.6908224999303
 20
-303.6090698835648
 30
0
 11
-584.4408440761659
 21
-303.6090698835648
 31
0
  0
LINE
  8
1
 62
3
  6
CENTER
 10
-670.0113836808956
 20
-303.6090698835646
 30
0
 11
-649.3597372949985
 21
-303.6090698835646
 31
0
  0
LINE
  8
1
 62
7
 10
-666.522305614612
 20
-305.2590698835647
 30
0
 11
-666.522305614612
 21
-307.6090698835646
 31
0
  0
LINE
  8
1
 62
7
 10
-654.522305614612
 20
-297.6090698835646
 30
0
 11
-654.522305614612
 21
-306.6090698835646
 31
0
  0
LINE
  8
1
 62
7
 10
-654.522305614612
 20
-296.3090698835647
 30
0
 11
-655.022305614612
 21
-296.8090698835647
 31
0
  0
LINE
  8
1
 62
7
 10
-666.522305614612
 20
-296.3090698835647
 30
0
 11
-666.022305614612
 21
-296.8090698835647
 31
0
  0
LINE
  8
1
 62
7
 10
-666.522305614612
 20
-297.6090698835646
 30
0
 11
-666.522305614612
 21
-305.2590698835647
 31
0
  0
LINE
  8
1
 62
7
 10
-657.6899174591871
 20
-288.1090698835646
 30
0
 11
-663.2604802076639
 21
-288.1090698835646
 31
0
  0
LINE
  8
1
 62
7
 10
-666.522305614612
 20
-291.3708952905128
 30
0
 11
-666.522305614612
 21
-296.3090698835647
 31
0
  0
LINE
  8
1
 62
7
 10
-654.522305614612
 20
-291.2766817281396
 30
0
 11
-654.522305614612
 21
-296.3090698835647
 31
0
  0
LINE
  8
1
 62
7
 10
-661.3609852710525
 20
-297.1090698835646
 30
0
 11
-659.6836259581718
 21
-297.1090698835646
 31
0
  0
LINE
  8
1
 62
7
 10
-661.3609852710525
 20
-297.1090698835646
 30
0
 11
-663.022305614612
 21
-298.7703902271242
 31
0
  0
LINE
  8
1
 62
7
 10
-663.022305614612
 20
-298.7703902271242
 30
0
 11
-664.6836259581718
 21
-297.1090698835646
 31
0
  0
LINE
  8
1
 62
7
 10
-664.6836259581718
 20
-297.1090698835646
 30
0
 11
-666.022305614612
 21
-297.1090698835646
 31
0
  0
LINE
  8
1
 62
7
 10
-666.022305614612
 20
-308.1090698835646
 30
0
 11
-655.022305614612
 21
-308.1090698835646
 31
0
  0
LINE
  8
1
 62
7
 10
-666.522305614612
 20
-297.6090698835646
 30
0
 11
-666.022305614612
 21
-297.1090698835646
 31
0
  0
LINE
  8
1
 62
7
 10
-666.022305614612
 20
-308.1090698835646
 30
0
 11
-666.522305614612
 21
-307.6090698835646
 31
0
  0
LINE
  8
1
 62
7
 10
-656.3609852710525
 20
-297.1090698835646
 30
0
 11
-658.022305614612
 21
-298.7703902271242
 31
0
  0
LINE
  8
1
 62
7
 10
-654.522305614612
 20
-307.6090698835646
 30
0
 11
-655.022305614612
 21
-308.1090698835646
 31
0
  0
LINE
  8
1
 62
7
 10
-655.022305614612
 20
-297.1090698835646
 30
0
 11
-654.522305614612
 21
-297.6090698835646
 31
0
  0
LINE
  8
1
 62
7
 10
-654.522305614612
 20
-307.6090698835646
 30
0
 11
-654.522305614612
 21
-306.6090698835646
 31
0
  0
LINE
  8
1
 62
7
 10
-655.022305614612
 20
-297.1090698835646
 30
0
 11
-656.3609852710525
 21
-297.1090698835646
 31
0
  0
LINE
  8
1
 62
7
 10
-658.022305614612
 20
-298.7703902271242
 30
0
 11
-659.6836259581718
 21
-297.1090698835646
 31
0
  0
LINE
  8
1
 62
3
  6
DIVIDE
 10
-510.3927769407652
 20
-296.0117717927203
 30
0
 11
-512.6982381839948
 21
-309.0866922272816
 31
0
  0
LINE
  8
1
 62
3
  6
DIVIDE
 10
-508.8194312510983
 20
-296.0117717927203
 30
0
 11
-511.1248924943279
 21
-309.0866922272816
 31
0
  0
LINE
  8
1
 62
7
 10
-509.012914510394
 20
-297.1090698835648
 30
0
 11
-476.8063078654249
 21
-297.1090698835648
 31
0
  0
LINE
  8
1
 62
7
 10
-510.9525112981871
 20
-308.1090698835648
 30
0
 11
-476.8063078654246
 21
-308.1090698835648
 31
0
  0
LINE
  8
1
 62
7
 10
-655.022305614612
 20
-296.8090698835647
 30
0
 11
-666.022305614612
 21
-296.8090698835647
 31
0
  0
LINE
  8
1
 62
7
 10
-663.2604802076639
 20
-288.1090698835646
 30
0
 11
-666.522305614612
 21
-291.3708952905128
 31
0
  0
LINE
  8
1
 62
7
 10
-657.6899174591871
 20
-288.1090698835646
 30
0
 11
-654.522305614612
 21
-291.2766817281396
 31
0
  0
LINE
  8
1
 62
7
 10
-660.522305614612
 20
-289.2430444797801
 30
0
 11
-661.272305614612
 21
-289.6760571816724
 31
0
  0
LINE
  8
1
 62
7
 10
-661.272305614612
 20
-289.6760571816724
 30
0
 11
-661.272305614612
 21
-290.5420825854568
 31
0
  0
LINE
  8
1
 62
7
 10
-661.272305614612
 20
-290.5420825854568
 30
0
 11
-660.522305614612
 21
-290.9750952873491
 31
0
  0
LINE
  8
1
 62
7
 10
-660.522305614612
 20
-290.9750952873491
 30
0
 11
-659.772305614612
 21
-290.5420825854568
 31
0
  0
LINE
  8
1
 62
7
 10
-659.772305614612
 20
-290.5420825854568
 30
0
 11
-659.772305614612
 21
-289.6760571816724
 31
0
  0
LINE
  8
1
 62
7
 10
-659.772305614612
 20
-289.6760571816724
 30
0
 11
-660.522305614612
 21
-289.2430444797801
 31
0
  0
LINE
  8
1
 62
3
  6
DASHDOT
 10
-662.8620920389991
 20
-290.1090698835646
 30
0
 11
-658.1553385477181
 21
-290.1090698835646
 31
0
  0
LINE
  8
1
 62
3
  6
DASHDOT
 10
-660.522305614612
 20
-287.8692289443507
 30
0
 11
-660.522305614612
 21
-292.2673428624327
 31
0
  0
LINE
  8
1
 62
7
 10
-664.522305614612
 20
-293.2430444797801
 30
0
 11
-665.272305614612
 21
-293.6760571816724
 31
0
  0
LINE
  8
1
 62
7
 10
-665.272305614612
 20
-293.6760571816724
 30
0
 11
-665.272305614612
 21
-294.5420825854568
 31
0
  0
LINE
  8
1
 62
7
 10
-665.272305614612
 20
-294.5420825854568
 30
0
 11
-664.522305614612
 21
-294.9750952873491
 31
0
  0
LINE
  8
1
 62
7
 10
-664.522305614612
 20
-294.9750952873491
 30
0
 11
-663.772305614612
 21
-294.5420825854568
 31
0
  0
LINE
  8
1
 62
7
 10
-663.772305614612
 20
-294.5420825854568
 30
0
 11
-663.772305614612
 21
-293.6760571816724
 31
0
  0
LINE
  8
1
 62
7
 10
-663.772305614612
 20
-293.6760571816724
 30
0
 11
-664.522305614612
 21
-293.2430444797801
 31
0
  0
LINE
  8
1
 62
3
  6
DASHDOT
 10
-666.8620920389991
 20
-294.1090698835646
 30
0
 11
-662.1553385477181
 21
-294.1090698835646
 31
0
  0
LINE
  8
1
 62
3
  6
DASHDOT
 10
-664.522305614612
 20
-291.8692289443507
 30
0
 11
-664.522305614612
 21
-296.2673428624327
 31
0
  0
LINE
  8
1
 62
7
 10
-656.522305614612
 20
-293.2430444797801
 30
0
 11
-657.272305614612
 21
-293.6760571816724
 31
0
  0
LINE
  8
1
 62
7
 10
-657.272305614612
 20
-293.6760571816724
 30
0
 11
-657.272305614612
 21
-294.5420825854568
 31
0
  0
LINE
  8
1
 62
7
 10
-657.272305614612
 20
-294.5420825854568
 30
0
 11
-656.522305614612
 21
-294.9750952873491
 31
0
  0
LINE
  8
1
 62
7
 10
-656.522305614612
 20
-294.9750952873491
 30
0
 11
-655.772305614612
 21
-294.5420825854568
 31
0
  0
LINE
  8
1
 62
7
 10
-655.772305614612
 20
-294.5420825854568
 30
0
 11
-655.772305614612
 21
-293.6760571816724
 31
0
  0
LINE
  8
1
 62
7
 10
-655.772305614612
 20
-293.6760571816724
 30
0
 11
-656.522305614612
 21
-293.2430444797801
 31
0
  0
LINE
  8
1
 62
3
  6
DASHDOT
 10
-658.8620920389991
 20
-294.1090698835646
 30
0
 11
-654.1553385477181
 21
-294.1090698835646
 31
0
  0
LINE
  8
1
 62
3
  6
DASHDOT
 10
-656.522305614612
 20
-291.8692289443507
 30
0
 11
-656.522305614612
 21
-296.2673428624327
 31
0
  0
CIRCLE
  8
1
 62
7
 10
-496.8063078654241
 20
-303.6090698835648
 30
0
 40
3
  0
CIRCLE
  8
1
 62
7
 10
-496.8063078654241
 20
-303.6090698835648
 30
0
 40
1.650000000000091
  0
CIRCLE
  8
1
 62
3
 10
-536.2164153434907
 20
-293.1090698835648
 30
0
 40
1.5
  0
CIRCLE
  8
1
 62
7
 10
-536.2164153434907
 20
-293.1090698835648
 30
0
 40
1.200000000000387
  0
CIRCLE
  8
1
 62
3
 10
-551.2164153434907
 20
-293.1090698835648
 30
0
 40
1.5
  0
CIRCLE
  8
1
 62
7
 10
-551.2164153434907
 20
-293.1090698835648
 30
0
 40
1.200000000000387
  0
CIRCLE
  8
1
 62
3
 10
-566.2164153434907
 20
-293.1090698835648
 30
0
 40
1.5
  0
CIRCLE
  8
1
 62
7
 10
-566.2164153434907
 20
-293.1090698835648
 30
0
 40
1.199999999999704
  0
CIRCLE
  8
1
 62
7
 10
-549.4150828549596
 20
-303.6090698835648
 30
0
 40
1.650000000000091
  0
CIRCLE
  8
1
 62
7
 10
-549.4150828549596
 20
-303.6090698835648
 30
0
 40
3
  0
CIRCLE
  8
1
 62
7
 10
-589.4150828549597
 20
-303.6090698835648
 30
0
 40
3
  0
CIRCLE
  8
1
 62
7
 10
-589.4150828549597
 20
-303.6090698835648
 30
0
 40
1.649999999999977
  0
CIRCLE
  8
1
 62
7
 10
-660.522305614612
 20
-290.1090698835646
 30
0
 40
1.899999999999977
  0
CIRCLE
  8
1
 62
7
 10
-664.522305614612
 20
-294.1090698835646
 30
0
 40
1.899999999999977
  0
CIRCLE
  8
1
 62
7
 10
-656.522305614612
 20
-294.1090698835646
 30
0
 40
1.899999999999977
  0
TEXT
  8
1
 62
2
 10
-540.033707591949
 20
-348.8510859425896
 30
0
 40
4
  1
UNION TOOL CO.
 41
0.9
  7
COMPLEX
  0
TEXT
  8
1
 62
2
 10
-670.25170505474
 20
-256.0759631496096
 30
0
 40
4
  1
MODEL : TGH2M
 41
0.9
  7
COMPLEX
  0
ENDSEC
  0
EOF
