  0
SECTION
  2
HEADER
  9
$ACADVER
  1
AC1009
  9
$INSBASE
 10
0
 20
0
  9
$EXTMIN
 10
-307.9726433695151
 20
64.9741096423856
  9
$EXTMAX
 10
83.47996163376436
 20
176.249090361544
  9
$LIMMIN
 10
-307.9726433695151
 20
64.9741096423856
  9
$LIMMAX
 10
83.47996163376436
 20
176.249090361544
  9
$VIEWCTR
 10
10
 20
10
  9
$VIEWSIZE
 40
10
  9
$SNAPMODE
 70
0
  9
$SNAPUNIT
 10
1
 20
1
  9
$SNAPBASE
 10
0
 20
0
  9
$SNAPANG
 50
0
  9
$SNAPSTYLE
 70
0
  9
$SNAPISOPAIR
 70
0
  9
$GRIDMODE
 70
0
  9
$GRIDUNIT
 10
0
 20
0
  9
$ORTHOMODE
 70
0
  9
$REGENMODE
 70
1
  9
$FILLMODE
 70
1
  9
$QTEXTMODE
 70
0
  9
$DRAGMODE
 70
2
  9
$LTSCALE
 40
1
  9
$OSMODE
 70
0
  9
$ATTMODE
 70
1
  9
$TEXTSIZE
 40
3.5
  9
$TRACEWID
 40
0.5
  9
$TEXTSTYLE
  7
STANDARD
  9
$CLAYER
  8
0
  9
$CELTYPE
  6
BYLAYER
  9
$CECOLOR
 62
256
  9
$DIMSCALE
 40
1
  9
$DIMASZ
 40
0.18
  9
$DIMEXO
 40
0.0625
  9
$DIMDLI
 40
0.38
  9
$DIMRND
 40
0
  9
$DIMDLE
 40
0
  9
$DIMEXE
 40
0.18
  9
$DIMTP
 40
0
  9
$DIMTM
 40
0
  9
$DIMTXT
 40
0.18
  9
$DIMCEN
 40
0.09
  9
$DIMTSZ
 40
0
  9
$DIMTOL
 70
0
  9
$DIMLIM
 70
0
  9
$DIMTIH
 70
1
  9
$DIMTOH
 70
1
  9
$DIMSE1
 70
0
  9
$DIMSE2
 70
0
  9
$DIMTAD
 70
0
  9
$DIMZIN
 70
0
  9
$DIMBLK
  1

  9
$DIMASO
 70
1
  9
$DIMSHO
 70
1
  9
$DIMPOST
  1

  9
$DIMAPOST
  1

  9
$DIMALT
 70
0
  9
$DIMALTD
 70
2
  9
$DIMALTF
 40
25.4
  9
$DIMLFAC
 40
1
  9
$DIMTOFL
 70
0
  9
$DIMTVP
 40
0
  9
$DIMTIX
 70
0
  9
$DIMSOXD
 70
0
  9
$DIMSAH
 70
0
  9
$DIMBLK1
  1

  9
$DIMBLK2
  1

  9
$DIMSTYLE
  2
*UNNAMED
  9
$DIMCLRD
 70
0
  9
$DIMCLRE
 70
0
  9
$DIMCLRT
 70
0
  9
$DIMTFAC
 40
1
  9
$DIMGAP
 40
0.09
  9
$LUNITS
 70
2
  9
$LUPREC
 70
4
  9
$AXISMODE
 70
0
  9
$AXISUNIT
 10
0
 20
0
  9
$SKETCHINC
 40
0.1
  9
$FILLETRAD
 40
2
  9
$AUNITS
 70
0
  9
$AUPREC
 70
0
  9
$MENU
  1
ACAD
  9
$ELEVATION
 40
0
  9
$THICKNESS
 40
0
  9
$VIEWDIR
 10
0
 20
0
 30
1
  9
$LIMCHECK
 70
0
  9
$BLIPMODE
 70
1
  9
$CHAMFERA
 40
0
  9
$CHAMFERB
 40
0
  9
$FASTZOOM
 70
1
  9
$SKPOLY
 70
0
  9
$ANGBASE
 50
0
  9
$ANGDIR
 70
0
  9
$PDMODE
 70
0
  9
$PDSIZE
 40
0
  9
$PLINEWID
 40
0
  9
$COORDS
 70
2
  0
ENDSEC
  0
SECTION
  2
TABLES
  0
TABLE
  2
DIMSTYLE
 70
0
  0
ENDTAB
  0
TABLE
  2
LTYPE
 70
9
  0
LTYPE
  2
CONTINUOUS
 70
64
  3
Solid line
 72
65
 73
0
 40
0
  0
LTYPE
  2
BORDER
 70
64
  3
__ __ . __ __ .
 72
65
 73
6
 40
18.02742259883524
 49
5.150692171095782
 49
-2.575346085547891
 49
5.150692171095782
 49
-2.575346085547891
 49
0
 49
-2.575346085547891
  0
LTYPE
  2
CENTER
 70
64
  3
____ _ ____ _
 72
65
 73
4
 40
20.60276868438313
 49
12.87673042773946
 49
-2.575346085547891
 49
2.575346085547891
 49
-2.575346085547891
  0
LTYPE
  2
DASHDOT
 70
64
  3
__ . __ . __ .
 72
65
 73
4
 40
10.30138434219157
 49
5.150692171095782
 49
-2.575346085547891
 49
0
 49
-2.575346085547891
  0
LTYPE
  2
DASHED
 70
64
  3
__ __ __ __ __
 72
65
 73
2
 40
7.726038256643673
 49
5.150692171095782
 49
-2.575346085547891
  0
LTYPE
  2
DIVIDE
 70
64
  3
__ . . __ . . 
 72
65
 73
6
 40
12.87673042773946
 49
5.150692171095782
 49
-2.575346085547891
 49
0
 49
-2.575346085547891
 49
0
 49
-2.575346085547891
  0
LTYPE
  2
DOT
 70
64
  3
..............
 72
65
 73
4
 40
5.150692171095782
 49
0
 49
-2.575346085547891
 49
0
 49
-2.575346085547891
  0
LTYPE
  2
HIDDEN
 70
64
  3
_ _ _ _ _ _ _
 72
65
 73
2
 40
3.863019128321837
 49
2.575346085547891
 49
-1.287673042773946
  0
LTYPE
  2
PHANTOM
 70
64
  3
_____ _ _ _____ _ _ 
 72
65
 73
6
 40
25.75346085547891
 49
12.87673042773946
 49
-2.575346085547891
 49
2.575346085547891
 49
-2.575346085547891
 49
2.575346085547891
 49
-2.575346085547891
  0
ENDTAB
  0
TABLE
  2
LAYER
 70
3
  0
LAYER
  2
1
 70
0
 62
7
  6
CONTINUOUS
  0
LAYER
  2
0
 70
0
 62
7
  6
CONTINUOUS
  0
ENDTAB
  0
TABLE
  2
STYLE
 70
4
  0
STYLE
  2
STANDARD
 70
0
 40
0
 41
1
 50
0
 71
0
 42
3.5
  3
txt
  4

  0
STYLE
  2
SIMPLEX
 70
0
 40
0
 41
1
 50
0
 71
0
 42
3.5
  3
simplex
  4

  0
STYLE
  2
COMPLEX
 70
0
 40
0
 41
1
 50
0
 71
0
 42
3.5
  3
complex
  4

  0
STYLE
  2
ITALIC
 70
0
 40
0
 41
1
 50
0
 71
0
 42
3.5
  3
italic
  4

  0
ENDTAB
  0
TABLE
  2
VIEW
 70
0
  0
ENDTAB
  0
ENDSEC
  0
SECTION
  2
BLOCKS
  0
ENDSEC
  0
SECTION
  2
ENTITIES
  0
LINE
  8
1
 62
7
 10
39.70308334158128
 20
118.7656151285882
 30
0
 11
41.31623449684098
 21
120.3787662838478
 31
0
  0
LINE
  8
1
 62
7
 10
39.65595430983266
 20
118.7891967749583
 30
0
 11
41.16770635941698
 21
120.3009488245426
 31
0
  0
LINE
  8
1
 62
7
 10
31.60146359074256
 20
118.7656151285882
 30
0
 11
29.988312435483
 21
120.3787662838478
 31
0
  0
LINE
  8
1
 62
7
 10
31.60146359074258
 20
123.3919174391074
 30
0
 11
29.988312435483
 21
121.7787662838478
 31
0
  0
LINE
  8
1
 62
7
 10
31.64859262249114
 20
123.3683357927373
 30
0
 11
30.13684057290682
 21
121.856583743153
 31
0
  0
LINE
  8
1
 62
7
 10
31.79136925471227
 20
123.2989803906025
 30
0
 11
30.13684057290682
 21
121.644451708797
 31
0
  0
LINE
  8
1
 62
7
 10
32.61564069853715
 20
122.9565256454696
 30
0
 11
30.14037610681274
 21
120.4812610537452
 31
0
  0
LINE
  8
1
 62
7
 10
32.80477356737821
 20
122.8911000730835
 30
0
 11
30.14037610681274
 21
120.226702612518
 31
0
  0
LINE
  8
1
 62
7
 10
39.70308334158132
 20
123.3919174391075
 30
0
 11
41.31623449684098
 21
121.7787662838478
 31
0
  0
LINE
  8
1
 62
7
 10
41.16770635941698
 20
120.5130808588986
 30
0
 11
39.51317767761152
 21
118.8585521770931
 31
0
  0
LINE
  8
1
 62
7
 10
41.16770635941698
 20
120.5130808588986
 30
0
 11
41.16770635941698
 21
120.3009488245426
 31
0
  0
LINE
  8
1
 62
7
 10
30.13684057290682
 20
121.644451708797
 30
0
 11
30.13684057290682
 21
121.856583743153
 31
0
  0
LINE
  8
1
 62
7
 10
41.16417082551108
 20
121.9308299551776
 30
0
 11
38.49977336494558
 21
119.2664324946121
 31
0
  0
LINE
  8
1
 62
7
 10
41.16417082551108
 20
121.6762715139505
 30
0
 11
38.68890623378664
 21
119.201006922226
 31
0
  0
LINE
  8
1
 62
7
 10
41.16417082551108
 20
121.6762715139505
 30
0
 11
41.16417082551108
 21
121.9308299551776
 31
0
  0
LINE
  8
1
 62
7
 10
30.14037610681274
 20
120.4812610537452
 30
0
 11
30.14037610681274
 21
120.226702612518
 31
0
  0
LINE
  8
1
 62
7
 10
41.16770635941698
 20
120.5130808588986
 30
0
 11
40.58434326493808
 21
121.0964439533775
 31
0
  0
LINE
  8
1
 62
7
 10
30.13684057290682
 20
121.644451708797
 30
0
 11
30.72020366738572
 21
121.0610886143181
 31
0
  0
LINE
  8
1
 62
7
 10
69.38249815376973
 20
126.5941991771029
 30
0
 11
64.43275068546392
 21
121.644451708797
 31
0
  0
LINE
  8
1
 62
7
 10
75.46361647197413
 20
120.5130808588986
 30
0
 11
70.51386900366823
 21
115.5633333905927
 31
0
  0
LINE
  8
1
 62
7
 10
70.72600103802422
 20
115.5633333905927
 30
0
 11
70.51386900366823
 21
115.5633333905927
 31
0
  0
LINE
  8
1
 62
7
 10
75.46361647197413
 20
120.5130808588986
 30
0
 11
75.46361647197413
 21
120.3009488245426
 31
0
  0
LINE
  8
1
 62
7
 10
69.17036611941383
 20
126.5941991771029
 30
0
 11
69.38249815376973
 21
126.5941991771029
 31
0
  0
LINE
  8
1
 62
7
 10
64.43275068546392
 20
121.644451708797
 30
0
 11
64.43275068546392
 21
121.856583743153
 31
0
  0
LINE
  8
1
 62
7
 10
69.94818357871897
 20
114.7148052531689
 30
0
 11
64.28422254804006
 21
120.3787662838478
 31
0
  0
LINE
  8
1
 62
7
 10
70.80024725004883
 20
126.5906636431969
 30
0
 11
64.43628621936985
 21
120.226702612518
 31
0
  0
LINE
  8
1
 62
7
 10
75.46008093806823
 20
121.9308299551776
 30
0
 11
69.09611990738922
 21
115.5668689244986
 31
0
  0
LINE
  8
1
 62
7
 10
75.46008093806823
 20
121.6762715139505
 30
0
 11
69.35067834861643
 21
115.5668689244986
 31
0
  0
LINE
  8
1
 62
7
 10
75.46008093806823
 20
121.6762715139505
 30
0
 11
75.46008093806823
 21
121.9308299551776
 31
0
  0
LINE
  8
1
 62
7
 10
64.43628621936985
 20
120.4812610537452
 30
0
 11
64.43628621936985
 21
120.226702612518
 31
0
  0
LINE
  8
1
 62
7
 10
69.09611990738922
 20
115.5668689244986
 30
0
 11
69.35067834861643
 21
115.5668689244986
 31
0
  0
LINE
  8
1
 62
7
 10
70.54568880882162
 20
126.5906636431969
 30
0
 11
70.80024725004883
 21
126.5906636431969
 31
0
  0
LINE
  8
1
 62
7
 10
-96.02721915656071
 20
101.0787662838478
 30
0
 11
-3.961754982954103
 21
101.0787662838478
 31
0
  0
LINE
  8
1
 62
7
 10
-99.81562677971054
 20
102.2787662838478
 30
0
 11
-293.5617549829542
 21
102.2787662838478
 31
0
  0
LINE
  8
1
 62
7
 10
-92.83570080573749
 20
119.1787662838478
 30
0
 11
-3.961754982954103
 21
119.1787662838478
 31
0
  0
LINE
  8
1
 62
7
 10
-96.62410842888733
 20
120.3787662838478
 30
0
 11
-293.5617549829542
 21
120.3787662838478
 31
0
  0
LINE
  8
1
 62
7
 10
-92.37725065589548
 20
121.7787662838478
 30
0
 11
-3.961754982954135
 21
121.7787662838478
 31
0
  0
LINE
  8
1
 62
7
 10
-92.16565827904533
 20
122.9787662838477
 30
0
 11
-3.961754982954143
 21
122.9787662838477
 31
0
  0
LINE
  8
1
 62
7
 10
-93.18573230507228
 20
139.8787662838477
 30
0
 11
-293.5617549829542
 21
139.8787662838478
 31
0
  0
LINE
  8
1
 62
7
 10
-88.9741399282221
 20
141.0787662838478
 30
0
 11
-3.961754982954375
 21
141.0787662838478
 31
0
  0
LINE
  8
1
 62
3
  6
DIVIDE
 10
-88.45249478661465
 20
144.037162891738
 30
0
 11
-96.65457603002174
 21
97.52084865297603
 31
0
  0
LINE
  8
1
 62
3
  6
DIVIDE
 10
-92.45249478661465
 20
144.037162891738
 30
0
 11
-100.6545760300217
 21
97.52084865297603
 31
0
  0
LINE
  8
1
 62
7
 10
69.09611990738922
 20
115.5668689244986
 30
0
 11
68.94818357871903
 21
115.7148052531688
 31
0
  0
LINE
  8
1
 62
7
 10
69.94818357871908
 20
127.4427273145268
 30
0
 11
75.61214460939793
 21
121.7787662838478
 31
0
  0
LINE
  8
1
 62
7
 10
70.54568880882162
 20
126.5906636431969
 30
0
 11
64.43628621936985
 21
120.4812610537452
 31
0
  0
LINE
  8
1
 62
7
 10
70.94818357871903
 20
126.4427273145268
 30
0
 11
70.80024725004883
 21
126.5906636431969
 31
0
  0
LINE
  8
1
 62
7
 10
75.46361647197413
 20
120.5130808588986
 30
0
 11
74.88025337749524
 21
121.0964439533775
 31
0
  0
LINE
  8
1
 62
7
 10
70.72600103802422
 20
115.5633333905927
 30
0
 11
75.46361647197413
 21
120.3009488245426
 31
0
  0
LINE
  8
1
 62
7
 10
69.93050590918934
 20
116.1466964850716
 30
0
 11
70.51386900366823
 21
115.5633333905927
 31
0
  0
LINE
  8
1
 62
7
 10
64.43275068546392
 20
121.644451708797
 30
0
 11
65.01611377994281
 21
121.0610886143181
 31
0
  0
LINE
  8
1
 62
7
 10
69.17036611941383
 20
126.5941991771029
 30
0
 11
64.43275068546392
 21
121.856583743153
 31
0
  0
LINE
  8
1
 62
7
 10
69.96586124824863
 20
126.010836082624
 30
0
 11
69.38249815376973
 21
126.5941991771029
 31
0
  0
LINE
  8
1
 62
3
 10
73.74818357871912
 20
137.0787662838478
 30
0
 11
59.94818357871902
 21
137.0787662838478
 31
0
  0
LINE
  8
1
 62
7
 10
73.74818357871912
 20
127.8287662838478
 30
0
 11
73.74818357871912
 21
138.3287662838478
 31
0
  0
LINE
  8
1
 62
3
 10
73.74818357871912
 20
129.0787662838478
 30
0
 11
59.94818357871902
 21
129.0787662838478
 31
0
  0
LINE
  8
1
 62
7
 10
73.74818357871912
 20
129.8287662838478
 30
0
 11
59.94818357871902
 21
129.8287662838478
 31
0
  0
LINE
  8
1
 62
7
 10
73.74818357871912
 20
136.3287662838478
 30
0
 11
59.94818357871902
 21
136.3287662838478
 31
0
  0
LINE
  8
1
 62
7
 10
73.74818357871912
 20
127.8287662838478
 30
0
 11
79.94818357871903
 21
127.8287662838478
 31
0
  0
LINE
  8
1
 62
7
 10
79.94818357871903
 20
138.3287662838478
 30
0
 11
73.74818357871912
 21
138.3287662838478
 31
0
  0
LINE
  8
1
 62
3
  6
CENTER
 10
82.14818357871901
 20
133.0787662838478
 30
0
 11
57.74818357871909
 21
133.0787662838478
 31
0
  0
LINE
  8
1
 62
7
 10
61.14818357871907
 20
141.0787662838478
 30
0
 11
59.94818357871902
 21
139.8787662838478
 31
0
  0
LINE
  8
1
 62
7
 10
79.94818357871903
 20
139.8787662838478
 30
0
 11
78.74818357871912
 21
141.0787662838478
 31
0
  0
LINE
  8
1
 62
7
 10
78.74818357871912
 20
121.7787662838478
 30
0
 11
79.94818357871903
 21
122.9787662838478
 31
0
  0
LINE
  8
1
 62
7
 10
59.94818357871902
 20
122.9787662838478
 30
0
 11
61.14818357871907
 21
121.7787662838478
 31
0
  0
LINE
  8
1
 62
7
 10
69.94818357871908
 20
127.4427273145268
 30
0
 11
64.28422254804009
 21
121.7787662838478
 31
0
  0
LINE
  8
1
 62
7
 10
75.61214460939793
 20
121.7787662838478
 30
0
 11
78.74818357871912
 21
121.7787662838478
 31
0
  0
LINE
  8
1
 62
7
 10
79.94818357871903
 20
122.9787662838478
 30
0
 11
79.94818357871903
 21
139.8787662838478
 31
0
  0
LINE
  8
1
 62
7
 10
78.74818357871912
 20
141.0787662838478
 30
0
 11
61.14818357871907
 21
141.0787662838478
 31
0
  0
LINE
  8
1
 62
7
 10
59.94818357871902
 20
122.9787662838478
 30
0
 11
59.94818357871902
 21
139.8787662838478
 31
0
  0
LINE
  8
1
 62
7
 10
64.28422254804009
 20
121.7787662838478
 30
0
 11
61.14818357871907
 21
121.7787662838478
 31
0
  0
LINE
  8
1
 62
7
 10
34.9022734661619
 20
119.6974618411738
 30
0
 11
34.9022734661619
 21
101.7600707265217
 31
0
  0
LINE
  8
1
 62
7
 10
36.4022734661619
 20
119.6974618411738
 30
0
 11
36.4022734661619
 21
101.7600707265217
 31
0
  0
LINE
  8
1
 62
7
 10
36.4022734661619
 20
140.3974618411739
 30
0
 11
36.4022734661619
 21
122.4600707265218
 31
0
  0
LINE
  8
1
 62
7
 10
34.9022734661619
 20
140.3974618411739
 30
0
 11
34.9022734661619
 21
122.4600707265218
 31
0
  0
LINE
  8
1
 62
4
  6
DASHDOT
 10
59.18617400366112
 20
121.0787662838478
 30
0
 11
80.59061010370552
 21
121.0787662838478
 31
0
  0
LINE
  8
1
 62
3
  6
DASHDOT
 10
-57.16175498295424
 20
109.0574985642956
 30
0
 11
-40.15473111627058
 21
109.0574985642956
 31
0
  0
LINE
  8
1
 62
3
  6
CENTER
 10
-48.76175498295423
 20
100.6574985642956
 30
0
 11
-48.76175498295423
 21
117.4574985642956
 31
0
  0
LINE
  8
1
 62
3
  6
DASHDOT
 10
-157.1617549829543
 20
109.0574985642956
 30
0
 11
-140.1547311162706
 21
109.0574985642956
 31
0
  0
LINE
  8
1
 62
3
  6
CENTER
 10
-148.7617549829542
 20
100.6574985642956
 30
0
 11
-148.7617549829542
 21
117.4574985642956
 31
0
  0
LINE
  8
1
 62
3
  6
DASHDOT
 10
-257.1617549829543
 20
109.0574985642956
 30
0
 11
-240.1547311162706
 21
109.0574985642956
 31
0
  0
LINE
  8
1
 62
3
  6
CENTER
 10
-248.7617549829542
 20
100.6574985642956
 30
0
 11
-248.7617549829542
 21
117.4574985642956
 31
0
  0
LINE
  8
1
 62
3
  6
DASHDOT
 10
-57.16175498295419
 20
133.1000340033999
 30
0
 11
-40.15473111627063
 21
133.1000340033999
 31
0
  0
LINE
  8
1
 62
3
  6
CENTER
 10
-48.76175498295419
 20
124.7000340033999
 30
0
 11
-48.76175498295419
 21
141.5000340033999
 31
0
  0
LINE
  8
1
 62
3
  6
DASHDOT
 10
-157.1617549829543
 20
133.1000340033999
 30
0
 11
-140.1547311162706
 21
133.1000340033999
 31
0
  0
LINE
  8
1
 62
3
  6
CENTER
 10
-148.7617549829542
 20
124.7000340033999
 30
0
 11
-148.7617549829542
 21
141.5000340033999
 31
0
  0
LINE
  8
1
 62
3
  6
DASHDOT
 10
-257.1617549829543
 20
133.1000340033999
 30
0
 11
-240.1547311162706
 21
133.1000340033999
 31
0
  0
LINE
  8
1
 62
3
  6
CENTER
 10
-248.7617549829542
 20
124.7000340033999
 30
0
 11
-248.7617549829542
 21
141.5000340033999
 31
0
  0
LINE
  8
1
 62
7
 10
-298.7617549829542
 20
117.9374113079722
 30
0
 11
-298.7617549829542
 21
119.1787662838478
 31
0
  0
LINE
  8
1
 62
7
 10
-298.7617549829542
 20
102.2787662838478
 30
0
 11
-298.7617549829542
 21
117.9374113079722
 31
0
  0
LINE
  8
1
 62
7
 10
-298.7617549829542
 20
124.2201212597234
 30
0
 11
-298.7617549829542
 21
139.8787662838478
 31
0
  0
LINE
  8
1
 62
7
 10
-298.7617549829542
 20
122.9787662838478
 30
0
 11
-298.7617549829542
 21
124.2201212597234
 31
0
  0
LINE
  8
1
 62
7
 10
-298.761754982954
 20
140.4787662838478
 30
0
 11
-298.7617549829542
 21
139.8787662838478
 31
0
  0
LINE
  8
1
 62
7
 10
-300.761754982954
 20
140.4787662838478
 30
0
 11
-298.761754982954
 21
140.4787662838478
 31
0
  0
LINE
  8
1
 62
7
 10
-301.761754982954
 20
123.4787662838479
 30
0
 11
-301.761754982954
 21
139.4787662838478
 31
0
  0
LINE
  8
1
 62
7
 10
-300.761754982954
 20
122.4787662838479
 30
0
 11
-298.761754982954
 21
122.4787662838479
 31
0
  0
LINE
  8
1
 62
7
 10
-298.7617549829542
 20
122.9787662838478
 30
0
 11
-298.761754982954
 21
122.4787662838479
 31
0
  0
LINE
  8
1
 62
7
 10
-300.761754982954
 20
140.4787662838478
 30
0
 11
-301.761754982954
 21
139.4787662838478
 31
0
  0
LINE
  8
1
 62
7
 10
-301.761754982954
 20
123.4787662838479
 30
0
 11
-300.761754982954
 21
122.4787662838479
 31
0
  0
LINE
  8
1
 62
7
 10
-300.761754982954
 20
122.4787662838479
 30
0
 11
-300.761754982954
 21
140.4787662838478
 31
0
  0
LINE
  8
1
 62
7
 10
-300.761754982954
 20
101.6787662838477
 30
0
 11
-300.761754982954
 21
119.6787662838477
 31
0
  0
LINE
  8
1
 62
7
 10
-300.761754982954
 20
119.6787662838477
 30
0
 11
-301.761754982954
 21
118.6787662838477
 31
0
  0
LINE
  8
1
 62
7
 10
-301.761754982954
 20
102.6787662838477
 30
0
 11
-300.761754982954
 21
101.6787662838477
 31
0
  0
LINE
  8
1
 62
7
 10
-298.761754982954
 20
119.6787662838477
 30
0
 11
-298.7617549829542
 21
119.1787662838478
 31
0
  0
LINE
  8
1
 62
7
 10
-298.761754982954
 20
119.6787662838477
 30
0
 11
-300.761754982954
 21
119.6787662838477
 31
0
  0
LINE
  8
1
 62
7
 10
-301.761754982954
 20
102.6787662838477
 30
0
 11
-301.761754982954
 21
118.6787662838477
 31
0
  0
LINE
  8
1
 62
7
 10
-298.761754982954
 20
101.6787662838477
 30
0
 11
-300.761754982954
 21
101.6787662838477
 31
0
  0
LINE
  8
1
 62
7
 10
-298.7617549829542
 20
102.2787662838478
 30
0
 11
-298.761754982954
 21
101.6787662838477
 31
0
  0
LINE
  8
1
 62
7
 10
-298.7617549829542
 20
117.9374113079722
 30
0
 11
-298.7617549829542
 21
119.1787662838478
 31
0
  0
LINE
  8
1
 62
7
 10
-298.7617549829542
 20
102.2787662838478
 30
0
 11
-298.7617549829542
 21
117.9374113079722
 31
0
  0
LINE
  8
1
 62
7
 10
1.238245017045799
 20
117.9374113079722
 30
0
 11
1.238245017045799
 21
102.2787662838478
 31
0
  0
LINE
  8
1
 62
7
 10
1.238245017045799
 20
119.1787662838478
 30
0
 11
1.238245017045799
 21
117.9374113079722
 31
0
  0
LINE
  8
1
 62
7
 10
1.238245017045799
 20
101.6787662838477
 30
0
 11
1.238245017045799
 21
102.2787662838478
 31
0
  0
LINE
  8
1
 62
7
 10
3.238245017045799
 20
101.6787662838477
 30
0
 11
1.238245017045799
 21
101.6787662838477
 31
0
  0
LINE
  8
1
 62
7
 10
4.238245017045799
 20
118.6787662838477
 30
0
 11
4.238245017045799
 21
102.6787662838477
 31
0
  0
LINE
  8
1
 62
7
 10
3.238245017045799
 20
119.6787662838477
 30
0
 11
1.238245017045799
 21
119.6787662838477
 31
0
  0
LINE
  8
1
 62
7
 10
1.238245017045799
 20
119.1787662838478
 30
0
 11
1.238245017045799
 21
119.6787662838477
 31
0
  0
LINE
  8
1
 62
7
 10
3.238245017045799
 20
101.6787662838477
 30
0
 11
4.238245017045799
 21
102.6787662838477
 31
0
  0
LINE
  8
1
 62
7
 10
4.238245017045799
 20
118.6787662838477
 30
0
 11
3.238245017045799
 21
119.6787662838477
 31
0
  0
LINE
  8
1
 62
7
 10
3.238245017045799
 20
119.6787662838477
 30
0
 11
3.238245017045799
 21
101.6787662838477
 31
0
  0
LINE
  8
1
 62
7
 10
3.238245017045784
 20
140.4787662838478
 30
0
 11
3.238245017045784
 21
122.4787662838479
 31
0
  0
LINE
  8
1
 62
7
 10
3.238245017045784
 20
122.4787662838479
 30
0
 11
4.238245017045784
 21
123.4787662838479
 31
0
  0
LINE
  8
1
 62
7
 10
4.238245017045784
 20
139.4787662838478
 30
0
 11
3.238245017045784
 21
140.4787662838478
 31
0
  0
LINE
  8
1
 62
7
 10
1.238245017045784
 20
122.4787662838479
 30
0
 11
1.238245017045784
 21
122.9787662838478
 31
0
  0
LINE
  8
1
 62
7
 10
1.238245017045784
 20
122.4787662838479
 30
0
 11
3.238245017045784
 21
122.4787662838479
 31
0
  0
LINE
  8
1
 62
7
 10
4.238245017045784
 20
139.4787662838478
 30
0
 11
4.238245017045784
 21
123.4787662838479
 31
0
  0
LINE
  8
1
 62
7
 10
1.238245017045784
 20
140.4787662838478
 30
0
 11
3.238245017045784
 21
140.4787662838478
 31
0
  0
LINE
  8
1
 62
7
 10
1.238245017045784
 20
139.8787662838478
 30
0
 11
1.238245017045784
 21
140.4787662838478
 31
0
  0
LINE
  8
1
 62
7
 10
-3.961754982954212
 20
139.8787662838477
 30
0
 11
-89.18573230507226
 21
139.8787662838477
 31
0
  0
LINE
  8
1
 62
7
 10
-293.5617549829542
 20
122.9787662838478
 30
0
 11
-96.16565827904533
 21
122.9787662838477
 31
0
  0
LINE
  8
1
 62
7
 10
-3.96175498295423
 20
102.2787662838478
 30
0
 11
-95.81562677971054
 21
102.2787662838478
 31
0
  0
LINE
  8
1
 62
7
 10
-293.5617549829542
 20
119.1787662838478
 30
0
 11
-96.83570080573749
 21
119.1787662838478
 31
0
  0
LINE
  8
1
 62
7
 10
-3.96175498295423
 20
102.2787662838478
 30
0
 11
-3.961754982954103
 21
101.0787662838478
 31
0
  0
LINE
  8
1
 62
7
 10
-3.961754982954311
 20
120.3787662838478
 30
0
 11
-92.62410842888733
 21
120.3787662838478
 31
0
  0
LINE
  8
1
 62
7
 10
-3.961754982954311
 20
120.3787662838478
 30
0
 11
-3.961754982954103
 21
119.1787662838478
 31
0
  0
LINE
  8
1
 62
7
 10
-3.961754982954135
 20
121.7787662838478
 30
0
 11
-0.1350023872592203
 21
121.7787662838478
 31
0
  0
LINE
  8
1
 62
7
 10
-3.961754982954143
 20
122.9787662838477
 30
0
 11
-3.961754982954135
 21
121.7787662838478
 31
0
  0
LINE
  8
1
 62
7
 10
-3.961754982954375
 20
141.0787662838478
 30
0
 11
0.03824501704578154
 21
141.0787662838478
 31
0
  0
LINE
  8
1
 62
7
 10
-3.961754982954375
 20
141.0787662838478
 30
0
 11
-3.961754982954212
 21
139.8787662838477
 31
0
  0
LINE
  8
1
 62
7
 10
-293.5617549829542
 20
101.0787662838478
 30
0
 11
-297.5617549829543
 21
101.0787662838478
 31
0
  0
LINE
  8
1
 62
7
 10
-293.5617549829542
 20
102.2787662838478
 30
0
 11
-293.5617549829542
 21
101.0787662838478
 31
0
  0
LINE
  8
1
 62
7
 10
-293.5617549829542
 20
120.3787662838478
 30
0
 11
-297.5617549829543
 21
120.3787662838478
 31
0
  0
LINE
  8
1
 62
7
 10
-293.5617549829542
 20
120.3787662838478
 30
0
 11
-293.5617549829542
 21
119.1787662838478
 31
0
  0
LINE
  8
1
 62
7
 10
-293.5617549829542
 20
121.7787662838478
 30
0
 11
-96.37725065589548
 21
121.7787662838478
 31
0
  0
LINE
  8
1
 62
7
 10
-293.5617549829542
 20
122.9787662838478
 30
0
 11
-293.5617549829542
 21
121.7787662838478
 31
0
  0
LINE
  8
1
 62
7
 10
-293.5617549829542
 20
141.0787662838478
 30
0
 11
-92.9741399282221
 21
141.0787662838478
 31
0
  0
LINE
  8
1
 62
7
 10
-293.5617549829542
 20
141.0787662838478
 30
0
 11
-293.5617549829542
 21
139.8787662838478
 31
0
  0
LINE
  8
1
 62
4
  6
CENTER
 10
11.52963472104088
 20
121.0787662838478
 30
0
 11
-307.9726433695151
 21
121.0787662838478
 31
0
  0
LINE
  8
1
 62
7
 10
1.238245017045784
 20
124.2201212597234
 30
0
 11
1.238245017045784
 21
122.9787662838478
 31
0
  0
LINE
  8
1
 62
7
 10
1.238245017045784
 20
122.9787662838478
 30
0
 11
0.8938578961067805
 21
122.6343791629088
 31
0
  0
LINE
  8
1
 62
7
 10
0.8938578961067805
 20
122.6343791629088
 30
0
 11
0.03824501704578154
 21
121.7787662838478
 31
0
  0
LINE
  8
1
 62
7
 10
-297.5617549829543
 20
141.0787662838478
 30
0
 11
-293.5617549829542
 21
141.0787662838478
 31
0
  0
LINE
  8
1
 62
7
 10
-297.5617549829543
 20
121.7787662838478
 30
0
 11
-293.5617549829542
 21
121.7787662838478
 31
0
  0
LINE
  8
1
 62
7
 10
-298.7617549829542
 20
139.8787662838478
 30
0
 11
-297.5617549829543
 21
141.0787662838478
 31
0
  0
LINE
  8
1
 62
7
 10
-298.7617549829542
 20
122.9787662838478
 30
0
 11
-297.5617549829543
 21
121.7787662838478
 31
0
  0
LINE
  8
1
 62
7
 10
0.03824501704578154
 20
141.0787662838478
 30
0
 11
1.238245017045784
 21
139.8787662838478
 31
0
  0
LINE
  8
1
 62
7
 10
-0.1350023872592203
 20
121.7787662838478
 30
0
 11
0.03824501704578154
 21
121.7787662838478
 31
0
  0
LINE
  8
1
 62
7
 10
-298.7617549829542
 20
124.2201212597234
 30
0
 11
-298.7617549829542
 21
122.9787662838478
 31
0
  0
LINE
  8
1
 62
7
 10
1.238245017045784
 20
139.8787662838478
 30
0
 11
1.238245017045784
 21
124.2201212597234
 31
0
  0
LINE
  8
1
 62
7
 10
-298.7617549829542
 20
139.8787662838478
 30
0
 11
-298.7617549829542
 21
124.2201212597234
 31
0
  0
LINE
  8
1
 62
7
 10
45.65227346616189
 20
139.8787662838478
 30
0
 11
44.45227346616188
 21
141.0787662838478
 31
0
  0
LINE
  8
1
 62
7
 10
26.85227346616189
 20
141.0787662838478
 30
0
 11
25.6522734661619
 21
139.8787662838478
 31
0
  0
LINE
  8
1
 62
7
 10
25.6522734661619
 20
122.9787662838478
 30
0
 11
26.85227346616189
 21
121.7787662838478
 31
0
  0
LINE
  8
1
 62
7
 10
44.45227346616188
 20
121.7787662838478
 30
0
 11
45.65227346616189
 21
122.9787662838478
 31
0
  0
LINE
  8
1
 62
7
 10
26.85227346616189
 20
121.7787662838478
 30
0
 11
29.988312435483
 21
121.7787662838478
 31
0
  0
LINE
  8
1
 62
7
 10
25.6522734661619
 20
139.8787662838478
 30
0
 11
25.6522734661619
 21
122.9787662838478
 31
0
  0
LINE
  8
1
 62
7
 10
44.45227346616188
 20
141.0787662838478
 30
0
 11
26.85227346616189
 21
141.0787662838478
 31
0
  0
LINE
  8
1
 62
7
 10
45.65227346616189
 20
139.8787662838478
 30
0
 11
45.65227346616189
 21
122.9787662838478
 31
0
  0
LINE
  8
1
 62
7
 10
44.45227346616188
 20
121.7787662838478
 30
0
 11
41.31623449684098
 21
121.7787662838478
 31
0
  0
LINE
  8
1
 62
4
  6
CENTER
 10
48.127757694164
 20
121.0787662838478
 30
0
 11
23.253124856056
 21
121.0787662838478
 31
0
  0
LINE
  8
1
 62
3
 10
66.14818357871893
 20
105.0787662838478
 30
0
 11
79.94818357871903
 21
105.0787662838478
 31
0
  0
LINE
  8
1
 62
7
 10
66.14818357871893
 20
114.3287662838478
 30
0
 11
66.14818357871893
 21
103.8287662838478
 31
0
  0
LINE
  8
1
 62
3
 10
66.14818357871893
 20
113.0787662838478
 30
0
 11
79.94818357871903
 21
113.0787662838478
 31
0
  0
LINE
  8
1
 62
7
 10
66.14818357871893
 20
112.3287662838478
 30
0
 11
79.94818357871903
 21
112.3287662838478
 31
0
  0
LINE
  8
1
 62
7
 10
66.14818357871893
 20
105.8287662838478
 30
0
 11
79.94818357871903
 21
105.8287662838478
 31
0
  0
LINE
  8
1
 62
7
 10
66.14818357871893
 20
114.3287662838478
 30
0
 11
59.948183578719
 21
114.3287662838478
 31
0
  0
LINE
  8
1
 62
7
 10
59.948183578719
 20
103.8287662838478
 30
0
 11
66.14818357871893
 21
103.8287662838478
 31
0
  0
LINE
  8
1
 62
3
  6
CENTER
 10
57.74818357871895
 20
109.0787662838478
 30
0
 11
82.14818357871893
 21
109.0787662838478
 31
0
  0
LINE
  8
1
 62
7
 10
41.31623449684098
 20
120.3787662838478
 30
0
 11
44.45227346616188
 21
120.3787662838478
 31
0
  0
LINE
  8
1
 62
7
 10
45.65227346616189
 20
119.1787662838478
 30
0
 11
45.65227346616189
 21
102.2787662838478
 31
0
  0
LINE
  8
1
 62
7
 10
26.85227346616189
 20
101.0787662838478
 30
0
 11
44.45227346616188
 21
101.0787662838478
 31
0
  0
LINE
  8
1
 62
7
 10
25.6522734661619
 20
119.1787662838478
 30
0
 11
25.6522734661619
 21
102.2787662838478
 31
0
  0
LINE
  8
1
 62
7
 10
29.988312435483
 20
120.3787662838478
 30
0
 11
26.85227346616189
 21
120.3787662838478
 31
0
  0
LINE
  8
1
 62
7
 10
45.65227346616189
 20
119.1787662838478
 30
0
 11
44.45227346616188
 21
120.3787662838478
 31
0
  0
LINE
  8
1
 62
7
 10
26.85227346616189
 20
120.3787662838478
 30
0
 11
25.6522734661619
 21
119.1787662838478
 31
0
  0
LINE
  8
1
 62
7
 10
25.6522734661619
 20
102.2787662838478
 30
0
 11
26.85227346616189
 21
101.0787662838478
 31
0
  0
LINE
  8
1
 62
7
 10
44.45227346616188
 20
101.0787662838478
 30
0
 11
45.65227346616189
 21
102.2787662838478
 31
0
  0
LINE
  8
1
 62
4
  6
DASHDOT
 10
69.94818357871903
 20
143.483908087672
 30
0
 11
69.94818357871903
 21
98.04801632430609
 31
0
  0
LINE
  8
1
 62
7
 10
78.74818357871892
 20
101.0787662838478
 30
0
 11
79.94818357871903
 21
102.2787662838478
 31
0
  0
LINE
  8
1
 62
7
 10
59.948183578719
 20
102.2787662838478
 30
0
 11
61.14818357871893
 21
101.0787662838478
 31
0
  0
LINE
  8
1
 62
7
 10
61.14818357871893
 20
120.3787662838478
 30
0
 11
59.948183578719
 21
119.1787662838478
 31
0
  0
LINE
  8
1
 62
7
 10
79.94818357871903
 20
119.1787662838478
 30
0
 11
78.74818357871892
 21
120.3787662838478
 31
0
  0
LINE
  8
1
 62
7
 10
69.94818357871897
 20
114.7148052531689
 30
0
 11
75.61214460939793
 21
120.3787662838478
 31
0
  0
LINE
  8
1
 62
7
 10
64.28422254804006
 20
120.3787662838478
 30
0
 11
61.14818357871893
 21
120.3787662838478
 31
0
  0
LINE
  8
1
 62
7
 10
59.948183578719
 20
119.1787662838478
 30
0
 11
59.948183578719
 21
102.2787662838478
 31
0
  0
LINE
  8
1
 62
7
 10
61.14818357871893
 20
101.0787662838478
 30
0
 11
78.74818357871892
 21
101.0787662838478
 31
0
  0
LINE
  8
1
 62
7
 10
79.94818357871903
 20
119.1787662838478
 30
0
 11
79.94818357871903
 21
102.2787662838478
 31
0
  0
LINE
  8
1
 62
7
 10
75.61214460939793
 20
120.3787662838478
 30
0
 11
78.74818357871892
 21
120.3787662838478
 31
0
  0
LINE
  8
1
 62
7
 10
-298.7617549829542
 20
117.9374113079722
 30
0
 11
-298.7617549829542
 21
102.2787662838478
 31
0
  0
LINE
  8
1
 62
7
 10
1.238245017045799
 20
117.9374113079722
 30
0
 11
1.238245017045799
 21
102.2787662838478
 31
0
  0
LINE
  8
1
 62
7
 10
-0.1350023872592203
 20
120.3787662838478
 30
0
 11
-3.961754982954311
 21
120.3787662838478
 31
0
  0
LINE
  8
1
 62
7
 10
-298.7617549829542
 20
119.1787662838478
 30
0
 11
-298.7617549829542
 21
117.9374113079722
 31
0
  0
LINE
  8
1
 62
7
 10
0.03824501704579575
 20
101.0787662838478
 30
0
 11
-3.961754982954103
 21
101.0787662838478
 31
0
  0
LINE
  8
1
 62
7
 10
0.03824501704579575
 20
120.3787662838478
 30
0
 11
-0.1350023872592203
 21
120.3787662838478
 31
0
  0
LINE
  8
1
 62
7
 10
1.238245017045799
 20
102.2787662838478
 30
0
 11
0.03824501704579575
 21
101.0787662838478
 31
0
  0
LINE
  8
1
 62
7
 10
-297.5617549829543
 20
120.3787662838478
 30
0
 11
-298.7617549829542
 21
119.1787662838478
 31
0
  0
LINE
  8
1
 62
7
 10
-297.5617549829543
 20
101.0787662838478
 30
0
 11
-298.7617549829542
 21
102.2787662838478
 31
0
  0
LINE
  8
1
 62
7
 10
-293.5617549829542
 20
101.0787662838478
 30
0
 11
-100.0272191565607
 21
101.0787662838478
 31
0
  0
LINE
  8
1
 62
7
 10
0.03824501704579575
 20
120.3787662838478
 30
0
 11
0.8938578961067947
 21
119.5231534047868
 31
0
  0
LINE
  8
1
 62
7
 10
0.8938578961067947
 20
119.5231534047868
 30
0
 11
1.238245017045799
 21
119.1787662838478
 31
0
  0
LINE
  8
1
 62
7
 10
1.238245017045799
 20
119.1787662838478
 30
0
 11
1.238245017045799
 21
117.9374113079722
 31
0
  0
ARC
  8
1
 62
7
 10
35.65227346616189
 20
110.7287662838478
 30
0
 40
7.999999999999995
 50
95.37937899111198
 51
264.620621008888
  0
ARC
  8
1
 62
7
 10
35.65227346616189
 20
110.7287662838478
 30
0
 40
8.000000000000011
 50
275.3793789911121
 51
84.62062100888782
  0
ARC
  8
1
 62
7
 10
35.65227346616189
 20
131.4287662838478
 30
0
 40
8.000000000000009
 50
95.37937899111196
 51
264.620621008888
  0
ARC
  8
1
 62
7
 10
35.65227346616189
 20
131.4287662838478
 30
0
 40
8.000000000000011
 50
275.3793789911121
 51
84.62062100888784
  0
ARC
  8
1
 62
7
 10
-285.8106615580812
 20
110.7287662838478
 30
0
 40
11.46655786542366
 50
132.5298220545191
 51
227.4701779454809
  0
ARC
  8
1
 62
7
 10
-285.3686441854587
 20
131.4287662838478
 30
0
 40
11.76985830586065
 50
134.1157002694903
 51
225.8842997305098
  0
ARC
  8
1
 62
7
 10
-11.9917540777094
 20
110.7287662838478
 30
0
 40
11.65690291036898
 50
313.5401048171364
 51
46.45989518286316
  0
ARC
  8
1
 62
7
 10
-12.14577480192892
 20
131.4287662838478
 30
0
 40
11.76353179947985
 50
314.0839109647249
 51
45.91608903527469
  0
CIRCLE
  8
1
 62
7
 10
35.65227346616189
 20
110.7287662838478
 30
0
 40
9.00000000000005
  0
CIRCLE
  8
1
 62
7
 10
35.65227346616189
 20
131.4287662838478
 30
0
 40
9.00000000000005
  0
CIRCLE
  8
1
 62
3
 10
-48.76175498295423
 20
109.0574985642956
 30
0
 40
3.999999999999993
  0
CIRCLE
  8
1
 62
7
 10
-48.76175498295423
 20
109.0574985642956
 30
0
 40
3.199999999999989
  0
CIRCLE
  8
1
 62
7
 10
-48.76175498295423
 20
109.0574985642956
 30
0
 40
5.249999999999993
  0
CIRCLE
  8
1
 62
3
 10
-148.7617549829542
 20
109.0574985642956
 30
0
 40
4
  0
CIRCLE
  8
1
 62
7
 10
-148.7617549829542
 20
109.0574985642956
 30
0
 40
3.200000000000017
  0
CIRCLE
  8
1
 62
7
 10
-148.7617549829542
 20
109.0574985642956
 30
0
 40
5.25
  0
CIRCLE
  8
1
 62
3
 10
-248.7617549829542
 20
109.0574985642956
 30
0
 40
4
  0
CIRCLE
  8
1
 62
7
 10
-248.7617549829542
 20
109.0574985642956
 30
0
 40
3.200000000000017
  0
CIRCLE
  8
1
 62
7
 10
-248.7617549829542
 20
109.0574985642956
 30
0
 40
5.25
  0
CIRCLE
  8
1
 62
3
 10
-48.76175498295419
 20
133.1000340033999
 30
0
 40
4
  0
CIRCLE
  8
1
 62
7
 10
-48.76175498295419
 20
133.1000340033999
 30
0
 40
3.200000000000003
  0
CIRCLE
  8
1
 62
7
  6
DASHED
 10
-48.76175498295419
 20
133.1000340033999
 30
0
 40
5.25
  0
CIRCLE
  8
1
 62
3
 10
-148.7617549829542
 20
133.1000340033999
 30
0
 40
4
  0
CIRCLE
  8
1
 62
7
 10
-148.7617549829542
 20
133.1000340033999
 30
0
 40
3.200000000000017
  0
CIRCLE
  8
1
 62
7
  6
DASHED
 10
-148.7617549829542
 20
133.1000340033999
 30
0
 40
5.25
  0
CIRCLE
  8
1
 62
3
 10
-248.7617549829542
 20
133.1000340033999
 30
0
 40
4
  0
CIRCLE
  8
1
 62
7
 10
-248.7617549829542
 20
133.1000340033999
 30
0
 40
3.200000000000017
  0
CIRCLE
  8
1
 62
7
  6
DASHED
 10
-248.7617549829542
 20
133.1000340033999
 30
0
 40
5.25
  0
TEXT
  8
1
 62
2
 10
31.57996163376434
 20
64.9741096423856
 30
0
 40
5
  1
UNION TOOL CO.
 41
0.7200000000000002
  7
COMPLEX
  0
TEXT
  8
1
 62
2
 10
-298.253544263544
 20
171.249090361544
 30
0
 40
5
  1
MODEL : G9
 41
0.7200000000000002
  7
COMPLEX
  0
ENDSEC
  0
EOF
