  0
SECTION
  2
HEADER
  9
$ACADVER
  1
AC1009
  9
$INSBASE
 10
0
 20
0
  9
$EXTMIN
 10
413.4225894704703
 20
1277.72516181165
  9
$EXTMAX
 10
591.6019475537361
 20
1367.28851607667
  9
$LIMMIN
 10
413.4225894704703
 20
1277.72516181165
  9
$LIMMAX
 10
591.6019475537361
 20
1367.28851607667
  9
$VIEWCTR
 10
10
 20
10
  9
$VIEWSIZE
 40
10
  9
$SNAPMODE
 70
0
  9
$SNAPUNIT
 10
1
 20
1
  9
$SNAPBASE
 10
0
 20
0
  9
$SNAPANG
 50
0
  9
$SNAPSTYLE
 70
0
  9
$SNAPISOPAIR
 70
0
  9
$GRIDMODE
 70
0
  9
$GRIDUNIT
 10
0
 20
0
  9
$ORTHOMODE
 70
0
  9
$REGENMODE
 70
1
  9
$FILLMODE
 70
1
  9
$QTEXTMODE
 70
0
  9
$DRAGMODE
 70
2
  9
$LTSCALE
 40
1
  9
$OSMODE
 70
0
  9
$ATTMODE
 70
1
  9
$TEXTSIZE
 40
3.5
  9
$TRACEWID
 40
0.5
  9
$TEXTSTYLE
  7
STANDARD
  9
$CLAYER
  8
0
  9
$CELTYPE
  6
BYLAYER
  9
$CECOLOR
 62
256
  9
$DIMSCALE
 40
1
  9
$DIMASZ
 40
0.18
  9
$DIMEXO
 40
0.0625
  9
$DIMDLI
 40
0.38
  9
$DIMRND
 40
0
  9
$DIMDLE
 40
0
  9
$DIMEXE
 40
0.18
  9
$DIMTP
 40
0
  9
$DIMTM
 40
0
  9
$DIMTXT
 40
0.18
  9
$DIMCEN
 40
0.09
  9
$DIMTSZ
 40
0
  9
$DIMTOL
 70
0
  9
$DIMLIM
 70
0
  9
$DIMTIH
 70
1
  9
$DIMTOH
 70
1
  9
$DIMSE1
 70
0
  9
$DIMSE2
 70
0
  9
$DIMTAD
 70
0
  9
$DIMZIN
 70
0
  9
$DIMBLK
  1

  9
$DIMASO
 70
1
  9
$DIMSHO
 70
1
  9
$DIMPOST
  1

  9
$DIMAPOST
  1

  9
$DIMALT
 70
0
  9
$DIMALTD
 70
2
  9
$DIMALTF
 40
25.4
  9
$DIMLFAC
 40
1
  9
$DIMTOFL
 70
0
  9
$DIMTVP
 40
0
  9
$DIMTIX
 70
0
  9
$DIMSOXD
 70
0
  9
$DIMSAH
 70
0
  9
$DIMBLK1
  1

  9
$DIMBLK2
  1

  9
$DIMSTYLE
  2
*UNNAMED
  9
$DIMCLRD
 70
0
  9
$DIMCLRE
 70
0
  9
$DIMCLRT
 70
0
  9
$DIMTFAC
 40
1
  9
$DIMGAP
 40
0.09
  9
$LUNITS
 70
2
  9
$LUPREC
 70
4
  9
$AXISMODE
 70
0
  9
$AXISUNIT
 10
0
 20
0
  9
$SKETCHINC
 40
0.1
  9
$FILLETRAD
 40
2
  9
$AUNITS
 70
0
  9
$AUPREC
 70
0
  9
$MENU
  1
ACAD
  9
$ELEVATION
 40
0
  9
$THICKNESS
 40
0
  9
$VIEWDIR
 10
0
 20
0
 30
1
  9
$LIMCHECK
 70
0
  9
$BLIPMODE
 70
1
  9
$CHAMFERA
 40
0
  9
$CHAMFERB
 40
0
  9
$FASTZOOM
 70
1
  9
$SKPOLY
 70
0
  9
$ANGBASE
 50
0
  9
$ANGDIR
 70
0
  9
$PDMODE
 70
0
  9
$PDSIZE
 40
0
  9
$PLINEWID
 40
0
  9
$COORDS
 70
2
  0
ENDSEC
  0
SECTION
  2
TABLES
  0
TABLE
  2
DIMSTYLE
 70
0
  0
ENDTAB
  0
TABLE
  2
LTYPE
 70
9
  0
LTYPE
  2
CONTINUOUS
 70
64
  3
Solid line
 72
65
 73
0
 40
0
  0
LTYPE
  2
BORDER
 70
64
  3
__ __ . __ __ .
 72
65
 73
6
 40
8.205628332781975
 49
2.344465237937707
 49
-1.172232618968854
 49
2.344465237937707
 49
-1.172232618968854
 49
0
 49
-1.172232618968854
  0
LTYPE
  2
CENTER
 70
64
  3
____ _ ____ _
 72
65
 73
4
 40
9.377860951750829
 49
5.861163094844269
 49
-1.172232618968854
 49
1.172232618968854
 49
-1.172232618968854
  0
LTYPE
  2
DASHDOT
 70
64
  3
__ . __ . __ .
 72
65
 73
4
 40
4.688930475875415
 49
2.344465237937707
 49
-1.172232618968854
 49
0
 49
-1.172232618968854
  0
LTYPE
  2
DASHED
 70
64
  3
__ __ __ __ __
 72
65
 73
2
 40
3.516697856906561
 49
2.344465237937707
 49
-1.172232618968854
  0
LTYPE
  2
DIVIDE
 70
64
  3
__ . . __ . . 
 72
65
 73
6
 40
5.861163094844269
 49
2.344465237937707
 49
-1.172232618968854
 49
0
 49
-1.172232618968854
 49
0
 49
-1.172232618968854
  0
LTYPE
  2
DOT
 70
64
  3
..............
 72
65
 73
4
 40
2.344465237937707
 49
0
 49
-1.172232618968854
 49
0
 49
-1.172232618968854
  0
LTYPE
  2
HIDDEN
 70
64
  3
_ _ _ _ _ _ _
 72
65
 73
2
 40
1.758348928453281
 49
1.172232618968854
 49
-0.5861163094844268
  0
LTYPE
  2
PHANTOM
 70
64
  3
_____ _ _ _____ _ _ 
 72
65
 73
6
 40
11.72232618968854
 49
5.861163094844269
 49
-1.172232618968854
 49
1.172232618968854
 49
-1.172232618968854
 49
1.172232618968854
 49
-1.172232618968854
  0
ENDTAB
  0
TABLE
  2
LAYER
 70
3
  0
LAYER
  2
1
 70
0
 62
7
  6
CONTINUOUS
  0
LAYER
  2
0
 70
0
 62
7
  6
CONTINUOUS
  0
ENDTAB
  0
TABLE
  2
STYLE
 70
4
  0
STYLE
  2
STANDARD
 70
0
 40
0
 41
1
 50
0
 71
0
 42
3.5
  3
txt
  4

  0
STYLE
  2
SIMPLEX
 70
0
 40
0
 41
1
 50
0
 71
0
 42
3.5
  3
simplex
  4

  0
STYLE
  2
COMPLEX
 70
0
 40
0
 41
1
 50
0
 71
0
 42
3.5
  3
complex
  4

  0
STYLE
  2
ITALIC
 70
0
 40
0
 41
1
 50
0
 71
0
 42
3.5
  3
italic
  4

  0
ENDTAB
  0
TABLE
  2
VIEW
 70
0
  0
ENDTAB
  0
ENDSEC
  0
SECTION
  2
BLOCKS
  0
ENDSEC
  0
SECTION
  2
ENTITIES
  0
LINE
  8
1
 62
7
 10
580.2179635047266
 20
1324.501783814753
 30
0
 11
580.2563697090624
 21
1324.463377610417
 31
0
  0
LINE
  8
1
 62
7
 10
578.1638183053796
 20
1321.747602902032
 30
0
 11
577.8138004486924
 21
1322.097620758718
 31
0
  0
LINE
  8
1
 62
7
 10
580.143717292702
 20
1323.586080533116
 30
0
 11
578.305239661617
 21
1321.747602902032
 31
0
  0
LINE
  8
1
 62
7
 10
579.7936994360148
 20
1324.077519746041
 30
0
 11
580.143717292702
 21
1323.727501889354
 31
0
  0
LINE
  8
1
 62
7
 10
575.51216787593
 20
1324.39925333148
 30
0
 11
575.8621857326173
 21
1324.049235474793
 31
0
  0
LINE
  8
1
 62
7
 10
577.3506455070151
 20
1326.379152318803
 30
0
 11
575.51216787593
 21
1324.540674687718
 31
0
  0
LINE
  8
1
 62
7
 10
577.8420847199396
 20
1326.029134462116
 30
0
 11
577.4920668632524
 21
1326.379152318803
 31
0
  0
LINE
  8
1
 62
7
 10
583.3279425843161
 20
1334.263377610417
 30
0
 11
582.5279425843161
 21
1335.063377610417
 31
0
  0
LINE
  8
1
 62
7
 10
573.1279425843161
 20
1335.063377610417
 30
0
 11
572.3279425843161
 21
1334.263377610417
 31
0
  0
LINE
  8
1
 62
7
 10
572.3279425843161
 20
1325.263377610417
 30
0
 11
573.1279425843161
 21
1324.463377610417
 31
0
  0
LINE
  8
1
 62
7
 10
583.3279425843161
 20
1325.263377610417
 30
0
 11
582.5279425843161
 21
1324.463377610417
 31
0
  0
LINE
  8
1
 62
7
 10
583.3279425843161
 20
1325.263377610417
 30
0
 11
583.3279425843161
 21
1334.263377610417
 31
0
  0
LINE
  8
1
 62
7
 10
573.1279425843161
 20
1335.063377610417
 30
0
 11
582.5279425843161
 21
1335.063377610417
 31
0
  0
LINE
  8
1
 62
7
 10
572.3279425843161
 20
1325.263377610417
 30
0
 11
572.3279425843161
 21
1334.263377610417
 31
0
  0
LINE
  8
1
 62
7
 10
580.2563697090624
 20
1324.463377610417
 30
0
 11
582.5279425843161
 21
1324.463377610417
 31
0
  0
LINE
  8
1
 62
7
 10
580.2179635047266
 20
1324.501783814753
 30
0
 11
580.1331106909843
 21
1324.586636628495
 31
0
  0
LINE
  8
1
 62
7
 10
575.3995154595699
 20
1324.463377610417
 30
0
 11
573.1279425843161
 21
1324.463377610417
 31
0
  0
LINE
  8
1
 62
7
 10
577.8279425843167
 20
1326.891804735164
 30
0
 11
575.3995154595699
 21
1324.463377610417
 31
0
  0
LINE
  8
1
 62
3
  6
CENTER
 10
584.4279425843162
 20
1330.563377610417
 30
0
 11
571.2279425843161
 21
1330.563377610417
 31
0
  0
LINE
  8
1
 62
7
 10
579.1279425843161
 20
1326.563377610417
 30
0
 11
583.3279425843161
 21
1326.563377610417
 31
0
  0
LINE
  8
1
 62
7
 10
579.1279425843161
 20
1332.713377610417
 30
0
 11
572.3279425843161
 21
1332.713377610417
 31
0
  0
LINE
  8
1
 62
7
 10
579.1279425843161
 20
1334.563377610417
 30
0
 11
579.1279425843161
 21
1326.563377610417
 31
0
  0
LINE
  8
1
 62
7
 10
579.1279425843161
 20
1328.413377610417
 30
0
 11
572.3279425843161
 21
1328.413377610417
 31
0
  0
LINE
  8
1
 62
3
 10
579.1279425843161
 20
1328.063377610417
 30
0
 11
572.3279425843161
 21
1328.063377610417
 31
0
  0
LINE
  8
1
 62
3
 10
579.1279425843161
 20
1333.063377610417
 30
0
 11
572.3279425843161
 21
1333.063377610417
 31
0
  0
LINE
  8
1
 62
7
 10
583.0279425843161
 20
1334.563377610417
 30
0
 11
579.1279425843161
 21
1334.563377610417
 31
0
  0
LINE
  8
1
 62
3
  6
CENTER
 10
507.5225894704701
 20
1330.563377610417
 30
0
 11
520.3225894704701
 21
1330.563377610417
 31
0
  0
LINE
  8
1
 62
3
  6
CENTER
 10
513.9225894704701
 20
1336.963377610417
 30
0
 11
513.9225894704701
 21
1324.163377610417
 31
0
  0
LINE
  8
1
 62
3
  6
CENTER
 10
469.5225894704701
 20
1330.563377610417
 30
0
 11
482.3225894704701
 21
1330.563377610417
 31
0
  0
LINE
  8
1
 62
3
  6
CENTER
 10
475.9225894704703
 20
1324.163377610417
 30
0
 11
475.9225894704703
 21
1336.963377610417
 31
0
  0
LINE
  8
1
 62
3
  6
CENTER
 10
439.9225894704703
 20
1330.563377610417
 30
0
 11
431.9225894704703
 21
1330.563377610417
 31
0
  0
LINE
  8
1
 62
3
  6
CENTER
 10
429.5225894704702
 20
1330.563377610417
 30
0
 11
442.3225894704701
 21
1330.563377610417
 31
0
  0
LINE
  8
1
 62
3
  6
CENTER
 10
435.9225894704703
 20
1336.963377610417
 30
0
 11
435.9225894704703
 21
1324.163377610417
 31
0
  0
LINE
  8
1
 62
7
 10
494.1549074910153
 20
1313.863377610417
 30
0
 11
531.6225894704701
 21
1313.863377610417
 31
0
  0
LINE
  8
1
 62
7
 10
495.7418503173915
 20
1322.863377610417
 30
0
 11
531.6225894704701
 21
1322.863377610417
 31
0
  0
LINE
  8
1
 62
7
 10
495.8829119019582
 20
1323.663377610417
 30
0
 11
533.1225894704701
 21
1323.663377610417
 31
0
  0
LINE
  8
1
 62
7
 10
496.0239734865251
 20
1324.463377610417
 30
0
 11
533.1225894704701
 21
1324.463377610417
 31
0
  0
LINE
  8
1
 62
7
 10
496.1650350710918
 20
1325.263377610417
 30
0
 11
531.6225894704701
 21
1325.263377610417
 31
0
  0
LINE
  8
1
 62
7
 10
497.8930394820347
 20
1335.063377610417
 30
0
 11
533.1225894704701
 21
1335.063377610417
 31
0
  0
LINE
  8
1
 62
6
  6
DIVIDE
 10
493.6611919450315
 20
1311.063377610417
 30
0
 11
498.2456934434516
 21
1337.063377610417
 31
0
  0
LINE
  8
1
 62
6
  6
DIVIDE
 10
496.1839869959088
 20
1337.063377610417
 30
0
 11
491.5994854974887
 21
1311.063377610417
 31
0
  0
LINE
  8
1
 62
7
 10
414.2225894704702
 20
1313.863377610417
 30
0
 11
415.9225894704703
 21
1313.863377610417
 31
0
  0
LINE
  8
1
 62
7
 10
414.2225894704702
 20
1322.863377610417
 30
0
 11
415.9225894704703
 21
1322.863377610417
 31
0
  0
LINE
  8
1
 62
7
 10
415.9225894704703
 20
1325.263377610417
 30
0
 11
414.2225894704702
 21
1325.263377610417
 31
0
  0
LINE
  8
1
 62
7
 10
415.9225894704703
 20
1334.263377610417
 30
0
 11
414.2225894704702
 21
1334.263377610417
 31
0
  0
LINE
  8
1
 62
7
 10
414.2225894704702
 20
1313.863377610417
 30
0
 11
413.4225894704703
 21
1314.663377610417
 31
0
  0
LINE
  8
1
 62
7
 10
413.4225894704703
 20
1314.663377610417
 30
0
 11
413.4225894704703
 21
1322.063377610417
 31
0
  0
LINE
  8
1
 62
7
 10
414.2225894704702
 20
1313.863377610417
 30
0
 11
414.2225894704702
 21
1322.863377610417
 31
0
  0
LINE
  8
1
 62
7
 10
413.4225894704703
 20
1322.063377610417
 30
0
 11
414.2225894704702
 21
1322.863377610417
 31
0
  0
LINE
  8
1
 62
7
 10
414.2225894704702
 20
1325.263377610417
 30
0
 11
414.2225894704702
 21
1334.263377610417
 31
0
  0
LINE
  8
1
 62
7
 10
413.4225894704703
 20
1333.463377610417
 30
0
 11
414.2225894704702
 21
1334.263377610417
 31
0
  0
LINE
  8
1
 62
7
 10
413.4225894704703
 20
1326.063377610417
 30
0
 11
413.4225894704703
 21
1333.463377610417
 31
0
  0
LINE
  8
1
 62
7
 10
414.2225894704702
 20
1325.263377610417
 30
0
 11
413.4225894704703
 21
1326.063377610417
 31
0
  0
LINE
  8
1
 62
7
 10
533.9225894704701
 20
1313.863377610417
 30
0
 11
535.6225894704702
 21
1313.863377610417
 31
0
  0
LINE
  8
1
 62
7
 10
536.4225894704701
 20
1314.663377610417
 30
0
 11
535.6225894704702
 21
1313.863377610417
 31
0
  0
LINE
  8
1
 62
7
 10
536.4225894704701
 20
1322.063377610417
 30
0
 11
536.4225894704701
 21
1314.663377610417
 31
0
  0
LINE
  8
1
 62
7
 10
535.6225894704702
 20
1322.863377610417
 30
0
 11
535.6225894704702
 21
1313.863377610417
 31
0
  0
LINE
  8
1
 62
7
 10
535.6225894704702
 20
1322.863377610417
 30
0
 11
536.4225894704701
 21
1322.063377610417
 31
0
  0
LINE
  8
1
 62
7
 10
533.9225894704701
 20
1322.863377610417
 30
0
 11
535.6225894704702
 21
1322.863377610417
 31
0
  0
LINE
  8
1
 62
7
 10
535.6225894704702
 20
1334.263377610417
 30
0
 11
535.6225894704702
 21
1325.263377610417
 31
0
  0
LINE
  8
1
 62
7
 10
535.6225894704702
 20
1334.263377610417
 30
0
 11
536.4225894704701
 21
1333.463377610417
 31
0
  0
LINE
  8
1
 62
7
 10
535.6225894704702
 20
1334.263377610417
 30
0
 11
533.9225894704701
 21
1334.263377610417
 31
0
  0
LINE
  8
1
 62
7
 10
536.4225894704701
 20
1333.463377610417
 30
0
 11
536.4225894704701
 21
1326.063377610417
 31
0
  0
LINE
  8
1
 62
7
 10
536.4225894704701
 20
1326.063377610417
 30
0
 11
535.6225894704702
 21
1325.263377610417
 31
0
  0
LINE
  8
1
 62
7
 10
535.6225894704702
 20
1325.263377610417
 30
0
 11
533.9225894704701
 21
1325.263377610417
 31
0
  0
LINE
  8
1
 62
4
  6
CENTER
 10
565.0282114244727
 20
1324.063377610417
 30
0
 11
549.2472397250252
 21
1324.063377610417
 31
0
  0
LINE
  8
1
 62
7
 10
551.5640025854031
 20
1313.863377610418
 30
0
 11
552.364002585403
 21
1313.063377610417
 31
0
  0
LINE
  8
1
 62
7
 10
561.7640025854031
 20
1313.063377610417
 30
0
 11
562.5640025854031
 21
1313.863377610418
 31
0
  0
LINE
  8
1
 62
7
 10
562.5640025854031
 20
1322.863377610418
 30
0
 11
561.7640025854031
 21
1323.663377610418
 31
0
  0
LINE
  8
1
 62
7
 10
562.5640025854031
 20
1325.263377610417
 30
0
 11
561.7640025854031
 21
1324.463377610417
 31
0
  0
LINE
  8
1
 62
7
 10
551.5640025854031
 20
1322.863377610418
 30
0
 11
552.364002585403
 21
1323.663377610418
 31
0
  0
LINE
  8
1
 62
7
 10
551.5640025854031
 20
1325.263377610417
 30
0
 11
552.364002585403
 21
1324.463377610417
 31
0
  0
LINE
  8
1
 62
7
 10
561.7640025854031
 20
1335.063377610417
 30
0
 11
562.5640025854031
 21
1334.263377610417
 31
0
  0
LINE
  8
1
 62
7
 10
551.5640025854031
 20
1334.263377610417
 30
0
 11
552.364002585403
 21
1335.063377610417
 31
0
  0
LINE
  8
1
 62
7
 10
551.5640025854031
 20
1322.863377610418
 30
0
 11
551.5640025854031
 21
1313.863377610418
 31
0
  0
LINE
  8
1
 62
7
 10
561.7640025854031
 20
1313.063377610417
 30
0
 11
552.364002585403
 21
1313.063377610417
 31
0
  0
LINE
  8
1
 62
7
 10
562.5640025854031
 20
1322.863377610418
 30
0
 11
562.5640025854031
 21
1313.863377610418
 31
0
  0
LINE
  8
1
 62
7
 10
551.5640025854031
 20
1334.263377610417
 30
0
 11
551.5640025854031
 21
1325.263377610417
 31
0
  0
LINE
  8
1
 62
7
 10
552.364002585403
 20
1335.063377610417
 30
0
 11
561.7640025854031
 21
1335.063377610417
 31
0
  0
LINE
  8
1
 62
7
 10
562.5640025854031
 20
1334.263377610417
 30
0
 11
562.5640025854031
 21
1325.263377610417
 31
0
  0
LINE
  8
1
 62
7
 10
559.4924297101492
 20
1324.463377610417
 30
0
 11
561.7640025854031
 21
1324.463377610417
 31
0
  0
LINE
  8
1
 62
7
 10
554.6355754606569
 20
1324.463377610417
 30
0
 11
552.364002585403
 21
1324.463377610417
 31
0
  0
LINE
  8
1
 62
7
 10
554.6355754606569
 20
1323.663377610418
 30
0
 11
552.364002585403
 21
1323.663377610418
 31
0
  0
LINE
  8
1
 62
7
 10
559.4924297101492
 20
1323.663377610418
 30
0
 11
561.7640025854031
 21
1323.663377610418
 31
0
  0
LINE
  8
1
 62
4
  6
CENTER
 10
571.778221298018
 20
1324.063377610417
 30
0
 11
583.518873968245
 21
1324.063377610417
 31
0
  0
LINE
  8
1
 62
3
  6
CENTER
 10
520.3225894704701
 20
1317.563377610417
 30
0
 11
507.5225894704701
 21
1317.563377610417
 31
0
  0
LINE
  8
1
 62
3
  6
CENTER
 10
482.3225894704701
 20
1317.563377610417
 30
0
 11
469.5225894704701
 21
1317.563377610417
 31
0
  0
LINE
  8
1
 62
3
  6
CENTER
 10
475.9225894704703
 20
1311.163377610417
 30
0
 11
475.9225894704703
 21
1323.963377610417
 31
0
  0
LINE
  8
1
 62
7
 10
493.9225894704701
 20
1313.063377610417
 30
0
 11
533.1225894704701
 21
1313.063377610417
 31
0
  0
LINE
  8
1
 62
7
 10
418.2225894704702
 20
1325.263377610417
 30
0
 11
494.1033286235489
 21
1325.263377610417
 31
0
  0
LINE
  8
1
 62
7
 10
531.6225894704701
 20
1334.263377610417
 30
0
 11
497.751977897468
 21
1334.263377610417
 31
0
  0
LINE
  8
1
 62
3
  6
CENTER
 10
513.9225894704701
 20
1323.963377610417
 30
0
 11
513.9225894704701
 21
1311.163377610417
 31
0
  0
LINE
  8
1
 62
3
  6
CENTER
 10
431.9225894704703
 20
1317.563377610417
 30
0
 11
439.9225894704703
 21
1317.563377610417
 31
0
  0
LINE
  8
1
 62
3
  6
CENTER
 10
442.3225894704701
 20
1317.563377610417
 30
0
 11
429.5225894704702
 21
1317.563377610417
 31
0
  0
LINE
  8
1
 62
3
  6
CENTER
 10
435.9225894704703
 20
1323.963377610417
 30
0
 11
435.9225894704703
 21
1311.163377610417
 31
0
  0
LINE
  8
1
 62
7
 10
415.9225894704703
 20
1334.263377610417
 30
0
 11
415.9225894704703
 21
1325.263377610417
 31
0
  0
LINE
  8
1
 62
7
 10
533.9225894704701
 20
1334.263377610417
 30
0
 11
533.9225894704701
 21
1325.263377610417
 31
0
  0
LINE
  8
1
 62
7
 10
415.9225894704703
 20
1322.863377610417
 30
0
 11
415.9225894704703
 21
1313.863377610417
 31
0
  0
LINE
  8
1
 62
7
 10
533.9225894704701
 20
1322.863377610417
 30
0
 11
533.9225894704701
 21
1313.863377610417
 31
0
  0
LINE
  8
1
 62
7
 10
416.7225894704702
 20
1335.063377610417
 30
0
 11
415.9225894704703
 21
1334.263377610417
 31
0
  0
LINE
  8
1
 62
7
 10
416.7225894704702
 20
1324.463377610417
 30
0
 11
415.9225894704703
 21
1325.263377610417
 31
0
  0
LINE
  8
1
 62
7
 10
416.7225894704702
 20
1323.663377610417
 30
0
 11
415.9225894704703
 21
1322.863377610417
 31
0
  0
LINE
  8
1
 62
7
 10
416.7225894704702
 20
1313.063377610417
 30
0
 11
415.9225894704703
 21
1313.863377610417
 31
0
  0
LINE
  8
1
 62
7
 10
533.1225894704701
 20
1335.063377610417
 30
0
 11
533.9225894704701
 21
1334.263377610417
 31
0
  0
LINE
  8
1
 62
7
 10
533.9225894704701
 20
1325.263377610417
 30
0
 11
533.1225894704701
 21
1324.463377610417
 31
0
  0
LINE
  8
1
 62
7
 10
533.1225894704701
 20
1323.663377610417
 30
0
 11
533.9225894704701
 21
1322.863377610417
 31
0
  0
LINE
  8
1
 62
7
 10
533.9225894704701
 20
1313.863377610417
 30
0
 11
533.1225894704701
 21
1313.063377610417
 31
0
  0
LINE
  8
1
 62
7
 10
418.2225894704702
 20
1335.063377610417
 30
0
 11
418.2225894704702
 21
1334.263377610417
 31
0
  0
LINE
  8
1
 62
7
 10
495.8313330344918
 20
1335.063377610417
 30
0
 11
416.7225894704702
 21
1335.063377610417
 31
0
  0
LINE
  8
1
 62
7
 10
418.2225894704702
 20
1325.263377610417
 30
0
 11
418.2225894704702
 21
1324.463377610417
 31
0
  0
LINE
  8
1
 62
7
 10
418.2225894704702
 20
1323.663377610417
 30
0
 11
418.2225894704702
 21
1322.863377610417
 31
0
  0
LINE
  8
1
 62
7
 10
418.2225894704702
 20
1313.863377610417
 30
0
 11
418.2225894704702
 21
1313.063377610417
 31
0
  0
LINE
  8
1
 62
7
 10
491.9521394589055
 20
1313.063377610417
 30
0
 11
416.7225894704702
 21
1313.063377610417
 31
0
  0
LINE
  8
1
 62
7
 10
418.2225894704702
 20
1334.263377610417
 30
0
 11
495.690271449925
 21
1334.263377610417
 31
0
  0
LINE
  8
1
 62
7
 10
531.6225894704701
 20
1335.063377610417
 30
0
 11
531.6225894704701
 21
1334.263377610417
 31
0
  0
LINE
  8
1
 62
7
 10
531.6225894704701
 20
1325.263377610417
 30
0
 11
531.6225894704701
 21
1324.463377610417
 31
0
  0
LINE
  8
1
 62
7
 10
531.6225894704701
 20
1323.663377610417
 30
0
 11
531.6225894704701
 21
1322.863377610417
 31
0
  0
LINE
  8
1
 62
7
 10
531.6225894704701
 20
1313.863377610417
 30
0
 11
531.6225894704701
 21
1313.063377610417
 31
0
  0
LINE
  8
1
 62
7
 10
418.2225894704702
 20
1322.863377610417
 30
0
 11
493.6801438698486
 21
1322.863377610417
 31
0
  0
LINE
  8
1
 62
4
  6
CENTER
 10
414.6023901422132
 20
1324.063377610417
 30
0
 11
536.4225894704701
 21
1324.063377610417
 31
0
  0
LINE
  8
1
 62
7
 10
572.327942584316
 20
1313.863377610417
 30
0
 11
573.1279425843161
 21
1313.063377610417
 31
0
  0
LINE
  8
1
 62
7
 10
582.5279425843161
 20
1313.063377610417
 30
0
 11
583.327942584316
 21
1313.863377610417
 31
0
  0
LINE
  8
1
 62
7
 10
583.327942584316
 20
1322.863377610417
 30
0
 11
582.5279425843161
 21
1323.663377610417
 31
0
  0
LINE
  8
1
 62
7
 10
572.327942584316
 20
1322.863377610417
 30
0
 11
573.1279425843161
 21
1323.663377610417
 31
0
  0
LINE
  8
1
 62
7
 10
572.327942584316
 20
1322.863377610417
 30
0
 11
572.327942584316
 21
1313.863377610417
 31
0
  0
LINE
  8
1
 62
7
 10
582.5279425843161
 20
1313.063377610417
 30
0
 11
573.1279425843161
 21
1313.063377610417
 31
0
  0
LINE
  8
1
 62
7
 10
583.327942584316
 20
1322.863377610417
 30
0
 11
583.327942584316
 21
1313.863377610417
 31
0
  0
LINE
  8
1
 62
7
 10
575.3995154595698
 20
1323.663377610417
 30
0
 11
573.1279425843161
 21
1323.663377610417
 31
0
  0
LINE
  8
1
 62
7
 10
580.2563697090623
 20
1323.663377610417
 30
0
 11
582.5279425843161
 21
1323.663377610417
 31
0
  0
LINE
  8
1
 62
7
 10
577.827942584316
 20
1321.234950485671
 30
0
 11
580.2563697090623
 21
1323.663377610417
 31
0
  0
LINE
  8
1
 62
3
  6
CENTER
 10
571.227942584316
 20
1317.563377610417
 30
0
 11
584.427942584316
 21
1317.563377610417
 31
0
  0
LINE
  8
1
 62
7
 10
576.5279425843161
 20
1321.563377610417
 30
0
 11
572.327942584316
 21
1321.563377610417
 31
0
  0
LINE
  8
1
 62
7
 10
576.5279425843161
 20
1315.413377610417
 30
0
 11
583.327942584316
 21
1315.413377610417
 31
0
  0
LINE
  8
1
 62
7
 10
576.5279425843161
 20
1313.563377610417
 30
0
 11
576.5279425843161
 21
1321.563377610417
 31
0
  0
LINE
  8
1
 62
7
 10
576.5279425843161
 20
1319.713377610417
 30
0
 11
583.327942584316
 21
1319.713377610417
 31
0
  0
LINE
  8
1
 62
3
 10
576.5279425843161
 20
1320.063377610417
 30
0
 11
583.327942584316
 21
1320.063377610417
 31
0
  0
LINE
  8
1
 62
3
 10
576.5279425843161
 20
1315.063377610417
 30
0
 11
583.327942584316
 21
1315.063377610417
 31
0
  0
LINE
  8
1
 62
7
 10
572.6279425843161
 20
1313.563377610417
 30
0
 11
576.5279425843161
 21
1313.563377610417
 31
0
  0
LINE
  8
1
 62
3
  6
CENTER
 10
577.827942584316
 20
1335.9449044625
 30
0
 11
577.827942584316
 21
1311.659081022608
 31
0
  0
LINE
  8
1
 62
7
 10
493.962267038982
 20
1324.463377610417
 30
0
 11
416.7225894704702
 21
1324.463377610417
 31
0
  0
LINE
  8
1
 62
7
 10
493.8212054544152
 20
1323.663377610417
 30
0
 11
416.7225894704702
 21
1323.663377610417
 31
0
  0
LINE
  8
1
 62
7
 10
492.0932010434723
 20
1313.863377610417
 30
0
 11
418.2225894704702
 21
1313.863377610417
 31
0
  0
LINE
  8
1
 62
7
 10
580.1331106909843
 20
1324.586636628495
 30
0
 11
580.1331106909843
 21
1324.416931001011
 31
0
  0
LINE
  8
1
 62
7
 10
580.1331106909843
 20
1324.586636628495
 30
0
 11
577.8279425843167
 21
1326.891804735164
 31
0
  0
LINE
  8
1
 62
7
 10
578.1814959749092
 20
1326.368545717086
 30
0
 11
578.351201602394
 21
1326.368545717086
 31
0
  0
LINE
  8
1
 62
7
 10
578.1814959749092
 20
1326.368545717086
 30
0
 11
575.522774477648
 21
1323.709824219824
 31
0
  0
LINE
  8
1
 62
7
 10
575.522774477648
 20
1323.709824219824
 30
0
 11
575.522774477648
 21
1323.540118592339
 31
0
  0
LINE
  8
1
 62
7
 10
575.522774477648
 20
1323.540118592339
 30
0
 11
575.3995154595698
 21
1323.663377610417
 31
0
  0
LINE
  8
1
 62
7
 10
577.3046835662381
 20
1321.758209503749
 30
0
 11
577.4743891937228
 21
1321.758209503749
 31
0
  0
LINE
  8
1
 62
7
 10
577.827942584316
 20
1321.234950485671
 30
0
 11
575.522774477648
 21
1323.540118592339
 31
0
  0
LINE
  8
1
 62
7
 10
577.4743891937228
 20
1321.758209503749
 30
0
 11
580.1331106909843
 21
1324.416931001011
 31
0
  0
LINE
  8
1
 62
7
 10
575.51216787593
 20
1324.540674687718
 30
0
 11
575.51216787593
 21
1324.39925333148
 31
0
  0
LINE
  8
1
 62
7
 10
577.4920668632524
 20
1326.379152318803
 30
0
 11
577.3506455070151
 21
1326.379152318803
 31
0
  0
LINE
  8
1
 62
7
 10
580.143717292702
 20
1323.727501889354
 30
0
 11
580.143717292702
 21
1323.586080533116
 31
0
  0
LINE
  8
1
 62
7
 10
578.305239661617
 20
1321.747602902032
 30
0
 11
578.1638183053796
 21
1321.747602902032
 31
0
  0
LINE
  8
1
 62
7
 10
580.143717292702
 20
1323.727501889354
 30
0
 11
578.1638183053796
 21
1321.747602902032
 31
0
  0
LINE
  8
1
 62
7
 10
577.3046835662381
 20
1321.758209503749
 30
0
 11
580.1331106909843
 21
1324.586636628495
 31
0
  0
LINE
  8
1
 62
7
 10
578.351201602394
 20
1326.368545717086
 30
0
 11
575.522774477648
 21
1323.540118592339
 31
0
  0
LINE
  8
1
 62
7
 10
575.51216787593
 20
1324.39925333148
 30
0
 11
577.4920668632524
 21
1326.379152318803
 31
0
  0
LINE
  8
1
 62
7
 10
559.4540235058137
 20
1324.501783814753
 30
0
 11
559.4924297101492
 21
1324.463377610417
 31
0
  0
LINE
  8
1
 62
7
 10
559.3797772937891
 20
1323.586080533116
 30
0
 11
558.4411642198809
 21
1322.647467459208
 31
0
  0
LINE
  8
1
 62
7
 10
559.0297594371018
 20
1324.077519746041
 30
0
 11
559.3797772937891
 21
1323.727501889354
 31
0
  0
LINE
  8
1
 62
7
 10
554.748227877017
 20
1324.39925333148
 30
0
 11
555.0982457337043
 21
1324.049235474793
 31
0
  0
LINE
  8
1
 62
7
 10
559.4540235058137
 20
1324.501783814753
 30
0
 11
559.3691706920713
 21
1324.586636628495
 31
0
  0
LINE
  8
1
 62
7
 10
559.3691706920713
 20
1324.586636628495
 30
0
 11
559.3691706920713
 21
1324.416931001011
 31
0
  0
LINE
  8
1
 62
7
 10
559.3691706920713
 20
1324.586636628495
 30
0
 11
558.4678494525412
 21
1325.487957868026
 31
0
  0
LINE
  8
1
 62
7
 10
554.758834478735
 20
1323.709824219824
 30
0
 11
554.758834478735
 21
1323.540118592339
 31
0
  0
LINE
  8
1
 62
7
 10
554.758834478735
 20
1323.540118592339
 30
0
 11
554.6355754606569
 21
1323.663377610418
 31
0
  0
LINE
  8
1
 62
7
 10
554.748227877017
 20
1324.540674687718
 30
0
 11
554.748227877017
 21
1324.39925333148
 31
0
  0
LINE
  8
1
 62
7
 10
559.3797772937891
 20
1323.727501889354
 30
0
 11
559.3797772937891
 21
1323.586080533116
 31
0
  0
LINE
  8
1
 62
7
 10
559.3797772937891
 20
1323.727501889354
 30
0
 11
558.3330143717566
 21
1322.680738967321
 31
0
  0
LINE
  8
1
 62
7
 10
554.748227877017
 20
1324.39925333148
 30
0
 11
555.7949907990485
 21
1325.446016253512
 31
0
  0
LINE
  8
1
 62
7
 10
555.6601557182657
 20
1325.487957868026
 30
0
 11
554.6355754606569
 21
1324.463377610417
 31
0
  0
LINE
  8
1
 62
7
 10
555.6868409509241
 20
1325.479287761625
 30
0
 11
554.748227877017
 21
1324.540674687718
 31
0
  0
LINE
  8
1
 62
7
 10
556.3667361200073
 20
1325.317725861096
 30
0
 11
554.758834478735
 21
1323.709824219824
 31
0
  0
LINE
  8
1
 62
7
 10
556.5156308635158
 20
1325.29691497712
 30
0
 11
554.758834478735
 21
1323.540118592339
 31
0
  0
LINE
  8
1
 62
7
 10
555.6601557182663
 20
1322.638797352808
 30
0
 11
554.758834478735
 21
1323.540118592339
 31
0
  0
LINE
  8
1
 62
7
 10
557.612374307289
 20
1322.829840243713
 30
0
 11
559.3691706920713
 21
1324.586636628495
 31
0
  0
LINE
  8
1
 62
7
 10
557.7612690507975
 20
1322.809029359737
 30
0
 11
559.3691706920713
 21
1324.416931001011
 31
0
  0
LINE
  8
1
 62
7
 10
558.4678494525397
 20
1322.638797352808
 30
0
 11
559.4924297101492
 21
1323.663377610418
 31
0
  0
LINE
  8
1
 62
7
 10
557.0640025854031
 20
1331.813377610417
 30
0
 11
557.3919974869742
 21
1331.813377610417
 31
0
  0
LINE
  8
1
 62
7
 10
557.3919974869742
 20
1331.813377610417
 30
0
 11
557.41134962533
 21
1330.704694346541
 31
0
  0
LINE
  8
1
 62
7
 10
557.41134962533
 20
1330.704694346541
 30
0
 11
557.5943326712929
 21
1330.293707696307
 31
0
  0
LINE
  8
1
 62
7
 10
557.5943326712929
 20
1330.293707696307
 30
0
 11
558.0053193215268
 21
1330.110724650344
 31
0
  0
LINE
  8
1
 62
7
 10
558.0053193215268
 20
1330.110724650344
 30
0
 11
559.114002585403
 21
1330.091372511988
 31
0
  0
LINE
  8
1
 62
7
 10
559.114002585403
 20
1330.091372511988
 30
0
 11
559.114002585403
 21
1329.763377610417
 31
0
  0
LINE
  8
1
 62
7
 10
556.736007683832
 20
1331.813377610417
 30
0
 11
557.0640025854031
 21
1331.813377610417
 31
0
  0
LINE
  8
1
 62
7
 10
556.7166555454762
 20
1330.704694346541
 30
0
 11
556.736007683832
 21
1331.813377610417
 31
0
  0
LINE
  8
1
 62
7
 10
556.5336724995132
 20
1330.293707696307
 30
0
 11
556.7166555454762
 21
1330.704694346541
 31
0
  0
LINE
  8
1
 62
7
 10
556.1226858492794
 20
1330.110724650344
 30
0
 11
556.5336724995132
 21
1330.293707696307
 31
0
  0
LINE
  8
1
 62
7
 10
555.0140025854032
 20
1330.091372511988
 30
0
 11
556.1226858492794
 21
1330.110724650344
 31
0
  0
LINE
  8
1
 62
7
 10
555.0140025854032
 20
1329.763377610417
 30
0
 11
555.0140025854032
 21
1330.091372511988
 31
0
  0
LINE
  8
1
 62
7
 10
557.3919974869742
 20
1327.713377610417
 30
0
 11
557.0640025854031
 21
1327.713377610417
 31
0
  0
LINE
  8
1
 62
7
 10
557.41134962533
 20
1328.822060874293
 30
0
 11
557.3919974869742
 21
1327.713377610417
 31
0
  0
LINE
  8
1
 62
7
 10
557.5943326712929
 20
1329.233047524527
 30
0
 11
557.41134962533
 21
1328.822060874293
 31
0
  0
LINE
  8
1
 62
7
 10
558.0053193215268
 20
1329.41603057049
 30
0
 11
557.5943326712929
 21
1329.233047524527
 31
0
  0
LINE
  8
1
 62
7
 10
559.114002585403
 20
1329.435382708846
 30
0
 11
558.0053193215268
 21
1329.41603057049
 31
0
  0
LINE
  8
1
 62
7
 10
559.114002585403
 20
1329.763377610417
 30
0
 11
559.114002585403
 21
1329.435382708846
 31
0
  0
LINE
  8
1
 62
7
 10
557.0640025854031
 20
1327.713377610417
 30
0
 11
556.736007683832
 21
1327.713377610417
 31
0
  0
LINE
  8
1
 62
7
 10
556.736007683832
 20
1327.713377610417
 30
0
 11
556.7166555454762
 21
1328.822060874293
 31
0
  0
LINE
  8
1
 62
7
 10
556.7166555454762
 20
1328.822060874293
 30
0
 11
556.5336724995132
 21
1329.233047524527
 31
0
  0
LINE
  8
1
 62
7
 10
556.5336724995132
 20
1329.233047524527
 30
0
 11
556.1226858492794
 21
1329.41603057049
 31
0
  0
LINE
  8
1
 62
7
 10
556.1226858492794
 20
1329.41603057049
 30
0
 11
555.0140025854032
 21
1329.435382708846
 31
0
  0
LINE
  8
1
 62
7
 10
555.0140025854032
 20
1329.435382708846
 30
0
 11
555.0140025854032
 21
1329.763377610417
 31
0
  0
LINE
  8
1
 62
7
 10
557.0640025854031
 20
1320.413377610417
 30
0
 11
557.3919974869742
 21
1320.413377610417
 31
0
  0
LINE
  8
1
 62
7
 10
557.3919974869742
 20
1320.413377610417
 30
0
 11
557.41134962533
 21
1319.304694346541
 31
0
  0
LINE
  8
1
 62
7
 10
557.41134962533
 20
1319.304694346541
 30
0
 11
557.5943326712929
 21
1318.893707696307
 31
0
  0
LINE
  8
1
 62
7
 10
557.5943326712929
 20
1318.893707696307
 30
0
 11
558.0053193215268
 21
1318.710724650344
 31
0
  0
LINE
  8
1
 62
7
 10
558.0053193215268
 20
1318.710724650344
 30
0
 11
559.114002585403
 21
1318.691372511988
 31
0
  0
LINE
  8
1
 62
7
 10
559.114002585403
 20
1318.691372511988
 30
0
 11
559.114002585403
 21
1318.363377610417
 31
0
  0
LINE
  8
1
 62
7
 10
556.736007683832
 20
1320.413377610417
 30
0
 11
557.0640025854031
 21
1320.413377610417
 31
0
  0
LINE
  8
1
 62
7
 10
556.7166555454762
 20
1319.304694346541
 30
0
 11
556.736007683832
 21
1320.413377610417
 31
0
  0
LINE
  8
1
 62
7
 10
556.5336724995132
 20
1318.893707696307
 30
0
 11
556.7166555454762
 21
1319.304694346541
 31
0
  0
LINE
  8
1
 62
7
 10
556.1226858492794
 20
1318.710724650344
 30
0
 11
556.5336724995132
 21
1318.893707696307
 31
0
  0
LINE
  8
1
 62
7
 10
555.0140025854032
 20
1318.691372511988
 30
0
 11
556.1226858492794
 21
1318.710724650344
 31
0
  0
LINE
  8
1
 62
7
 10
555.0140025854032
 20
1318.363377610417
 30
0
 11
555.0140025854032
 21
1318.691372511988
 31
0
  0
LINE
  8
1
 62
7
 10
557.3919974869742
 20
1316.313377610417
 30
0
 11
557.0640025854031
 21
1316.313377610417
 31
0
  0
LINE
  8
1
 62
7
 10
557.41134962533
 20
1317.422060874293
 30
0
 11
557.3919974869742
 21
1316.313377610417
 31
0
  0
LINE
  8
1
 62
7
 10
557.5943326712929
 20
1317.833047524527
 30
0
 11
557.41134962533
 21
1317.422060874293
 31
0
  0
LINE
  8
1
 62
7
 10
558.0053193215268
 20
1318.01603057049
 30
0
 11
557.5943326712929
 21
1317.833047524527
 31
0
  0
LINE
  8
1
 62
7
 10
559.114002585403
 20
1318.035382708846
 30
0
 11
558.0053193215268
 21
1318.01603057049
 31
0
  0
LINE
  8
1
 62
7
 10
559.114002585403
 20
1318.363377610417
 30
0
 11
559.114002585403
 21
1318.035382708846
 31
0
  0
LINE
  8
1
 62
7
 10
557.0640025854031
 20
1316.313377610417
 30
0
 11
556.736007683832
 21
1316.313377610417
 31
0
  0
LINE
  8
1
 62
7
 10
556.736007683832
 20
1316.313377610417
 30
0
 11
556.7166555454762
 21
1317.422060874293
 31
0
  0
LINE
  8
1
 62
7
 10
556.7166555454762
 20
1317.422060874293
 30
0
 11
556.5336724995132
 21
1317.833047524527
 31
0
  0
LINE
  8
1
 62
7
 10
556.5336724995132
 20
1317.833047524527
 30
0
 11
556.1226858492794
 21
1318.01603057049
 31
0
  0
LINE
  8
1
 62
7
 10
556.1226858492794
 20
1318.01603057049
 30
0
 11
555.0140025854032
 21
1318.035382708846
 31
0
  0
LINE
  8
1
 62
7
 10
555.0140025854032
 20
1318.035382708846
 30
0
 11
555.0140025854032
 21
1318.363377610417
 31
0
  0
ARC
  8
1
 62
7
 10
525.6731542948565
 20
1329.763377610417
 30
0
 40
7.459609836233232
 50
322.8970746961504
 51
37.10292530384963
  0
ARC
  8
1
 62
7
 10
525.6228916847948
 20
1318.363377610417
 30
0
 40
7.499758230732287
 50
323.1287170610744
 51
36.87128293892558
  0
ARC
  8
1
 62
7
 10
424.1939807633024
 20
1329.763377610417
 30
0
 40
7.47713273736078
 50
142.9985685422999
 51
217.0014314577001
  0
ARC
  8
1
 62
7
 10
424.219790920242
 20
1318.363377610417
 30
0
 40
7.497761347838772
 50
143.117270914685
 51
216.882729085315
  0
CIRCLE
  8
1
 62
7
 10
557.0640025854031
 20
1318.363377610417
 30
0
 40
4.4999999999994
  0
CIRCLE
  8
1
 62
7
 10
557.0640025854031
 20
1329.763377610417
 30
0
 40
4.500000000000304
  0
CIRCLE
  8
1
 62
7
  6
DASHED
 10
513.9225894704701
 20
1330.563377610417
 30
0
 40
4.000000000000057
  0
CIRCLE
  8
1
 62
3
 10
513.9225894704701
 20
1330.563377610417
 30
0
 40
2.500000000000057
  0
CIRCLE
  8
1
 62
7
 10
513.9225894704701
 20
1330.563377610417
 30
0
 40
2.000000000000057
  0
CIRCLE
  8
1
 62
7
 10
475.9225894704703
 20
1330.563377610417
 30
0
 40
2
  0
CIRCLE
  8
1
 62
3
 10
475.9225894704703
 20
1330.563377610417
 30
0
 40
2.5
  0
CIRCLE
  8
1
 62
7
  6
DASHED
 10
475.9225894704703
 20
1330.563377610417
 30
0
 40
4
  0
CIRCLE
  8
1
 62
7
 10
435.9225894704703
 20
1330.563377610417
 30
0
 40
2
  0
CIRCLE
  8
1
 62
3
 10
435.9225894704703
 20
1330.563377610417
 30
0
 40
2.5
  0
CIRCLE
  8
1
 62
7
  6
DASHED
 10
435.9225894704703
 20
1330.563377610417
 30
0
 40
4
  0
CIRCLE
  8
1
 62
7
 10
475.9225894704703
 20
1317.563377610417
 30
0
 40
2
  0
CIRCLE
  8
1
 62
3
 10
475.9225894704703
 20
1317.563377610417
 30
0
 40
2.5
  0
CIRCLE
  8
1
 62
7
 10
475.9225894704703
 20
1317.563377610417
 30
0
 40
4
  0
CIRCLE
  8
1
 62
7
 10
513.9225894704701
 20
1317.563377610417
 30
0
 40
4.000000000000057
  0
CIRCLE
  8
1
 62
3
 10
513.9225894704701
 20
1317.563377610417
 30
0
 40
2.500000000000057
  0
CIRCLE
  8
1
 62
7
 10
513.9225894704701
 20
1317.563377610417
 30
0
 40
2.000000000000057
  0
CIRCLE
  8
1
 62
7
 10
435.9225894704703
 20
1317.563377610417
 30
0
 40
2
  0
CIRCLE
  8
1
 62
3
 10
435.9225894704703
 20
1317.563377610417
 30
0
 40
2.5
  0
CIRCLE
  8
1
 62
7
 10
435.9225894704703
 20
1317.563377610417
 30
0
 40
4
  0
CIRCLE
  8
1
 62
7
 10
557.0640025854031
 20
1329.763377610417
 30
0
 40
3.699999999999456
  0
CIRCLE
  8
1
 62
7
 10
557.0640025854031
 20
1318.363377610417
 30
0
 40
3.69999999999923
  0
TEXT
  8
1
 62
2
 10
419.053758717061
 20
1363.78851607667
 30
0
 40
3.5
  1
MODEL : G4
 41
0.72
  7
COMPLEX
  0
TEXT
  8
1
 62
2
 10
555.271947553736
 20
1277.72516181165
 30
0
 40
3.5
  1
UNION TOOL CO.
 41
0.72
  7
COMPLEX
  0
ENDSEC
  0
EOF
