  0
SECTION
  2
HEADER
  9
$ACADVER
  1
AC1009
  9
$INSBASE
 10
0
 20
0
  9
$EXTMIN
 10
206.232859714696
 20
419.797496064734
  9
$EXTMAX
 10
651.188693407546
 20
607.621967226802
  9
$LIMMIN
 10
206.232859714696
 20
419.797496064734
  9
$LIMMAX
 10
651.188693407546
 20
607.621967226802
  9
$VIEWCTR
 10
10
 20
10
  9
$VIEWSIZE
 40
10
  9
$SNAPMODE
 70
0
  9
$SNAPUNIT
 10
1
 20
1
  9
$SNAPBASE
 10
0
 20
0
  9
$SNAPANG
 50
0
  9
$SNAPSTYLE
 70
0
  9
$SNAPISOPAIR
 70
0
  9
$GRIDMODE
 70
0
  9
$GRIDUNIT
 10
0
 20
0
  9
$ORTHOMODE
 70
0
  9
$REGENMODE
 70
1
  9
$FILLMODE
 70
1
  9
$QTEXTMODE
 70
0
  9
$DRAGMODE
 70
2
  9
$LTSCALE
 40
1
  9
$OSMODE
 70
0
  9
$ATTMODE
 70
1
  9
$TEXTSIZE
 40
3.5
  9
$TRACEWID
 40
0.5
  9
$TEXTSTYLE
  7
STANDARD
  9
$CLAYER
  8
0
  9
$CELTYPE
  6
BYLAYER
  9
$CECOLOR
 62
256
  9
$DIMSCALE
 40
1
  9
$DIMASZ
 40
0.18
  9
$DIMEXO
 40
0.0625
  9
$DIMDLI
 40
0.38
  9
$DIMRND
 40
0
  9
$DIMDLE
 40
0
  9
$DIMEXE
 40
0.18
  9
$DIMTP
 40
0
  9
$DIMTM
 40
0
  9
$DIMTXT
 40
0.18
  9
$DIMCEN
 40
0.09
  9
$DIMTSZ
 40
0
  9
$DIMTOL
 70
0
  9
$DIMLIM
 70
0
  9
$DIMTIH
 70
1
  9
$DIMTOH
 70
1
  9
$DIMSE1
 70
0
  9
$DIMSE2
 70
0
  9
$DIMTAD
 70
0
  9
$DIMZIN
 70
0
  9
$DIMBLK
  1

  9
$DIMASO
 70
1
  9
$DIMSHO
 70
1
  9
$DIMPOST
  1

  9
$DIMAPOST
  1

  9
$DIMALT
 70
0
  9
$DIMALTD
 70
2
  9
$DIMALTF
 40
25.4
  9
$DIMLFAC
 40
1
  9
$DIMTOFL
 70
0
  9
$DIMTVP
 40
0
  9
$DIMTIX
 70
0
  9
$DIMSOXD
 70
0
  9
$DIMSAH
 70
0
  9
$DIMBLK1
  1

  9
$DIMBLK2
  1

  9
$DIMSTYLE
  2
*UNNAMED
  9
$DIMCLRD
 70
0
  9
$DIMCLRE
 70
0
  9
$DIMCLRT
 70
0
  9
$DIMTFAC
 40
1
  9
$DIMGAP
 40
0.09
  9
$LUNITS
 70
2
  9
$LUPREC
 70
4
  9
$AXISMODE
 70
0
  9
$AXISUNIT
 10
0
 20
0
  9
$SKETCHINC
 40
0.1
  9
$FILLETRAD
 40
2
  9
$AUNITS
 70
0
  9
$AUPREC
 70
0
  9
$MENU
  1
ACAD
  9
$ELEVATION
 40
0
  9
$THICKNESS
 40
0
  9
$VIEWDIR
 10
0
 20
0
 30
1
  9
$LIMCHECK
 70
0
  9
$BLIPMODE
 70
1
  9
$CHAMFERA
 40
0
  9
$CHAMFERB
 40
0
  9
$FASTZOOM
 70
1
  9
$SKPOLY
 70
0
  9
$ANGBASE
 50
0
  9
$ANGDIR
 70
0
  9
$PDMODE
 70
0
  9
$PDSIZE
 40
0
  9
$PLINEWID
 40
0
  9
$COORDS
 70
2
  0
ENDSEC
  0
SECTION
  2
TABLES
  0
TABLE
  2
DIMSTYLE
 70
0
  0
ENDTAB
  0
TABLE
  2
LTYPE
 70
9
  0
LTYPE
  2
CONTINUOUS
 70
64
  3
Solid line
 72
65
 73
0
 40
0
  0
LTYPE
  2
BORDER
 70
64
  3
__ __ . __ __ .
 72
65
 73
6
 40
20.4913870779602
 49
5.854682022274342
 49
-2.927341011137171
 49
5.854682022274342
 49
-2.927341011137171
 49
0
 49
-2.927341011137171
  0
LTYPE
  2
CENTER
 70
64
  3
____ _ ____ _
 72
65
 73
4
 40
23.41872808909737
 49
14.63670505568586
 49
-2.927341011137171
 49
2.927341011137171
 49
-2.927341011137171
  0
LTYPE
  2
DASHDOT
 70
64
  3
__ . __ . __ .
 72
65
 73
4
 40
11.70936404454868
 49
5.854682022274342
 49
-2.927341011137171
 49
0
 49
-2.927341011137171
  0
LTYPE
  2
DASHED
 70
64
  3
__ __ __ __ __
 72
65
 73
2
 40
8.782023033411512
 49
5.854682022274342
 49
-2.927341011137171
  0
LTYPE
  2
DIVIDE
 70
64
  3
__ . . __ . . 
 72
65
 73
6
 40
14.63670505568586
 49
5.854682022274342
 49
-2.927341011137171
 49
0
 49
-2.927341011137171
 49
0
 49
-2.927341011137171
  0
LTYPE
  2
DOT
 70
64
  3
..............
 72
65
 73
4
 40
5.854682022274342
 49
0
 49
-2.927341011137171
 49
0
 49
-2.927341011137171
  0
LTYPE
  2
HIDDEN
 70
64
  3
_ _ _ _ _ _ _
 72
65
 73
2
 40
4.391011516705756
 49
2.927341011137171
 49
-1.463670505568586
  0
LTYPE
  2
PHANTOM
 70
64
  3
_____ _ _ _____ _ _ 
 72
65
 73
6
 40
29.27341011137171
 49
14.63670505568586
 49
-2.927341011137171
 49
2.927341011137171
 49
-2.927341011137171
 49
2.927341011137171
 49
-2.927341011137171
  0
ENDTAB
  0
TABLE
  2
LAYER
 70
3
  0
LAYER
  2
1
 70
0
 62
7
  6
CONTINUOUS
  0
LAYER
  2
0
 70
0
 62
7
  6
CONTINUOUS
  0
ENDTAB
  0
TABLE
  2
STYLE
 70
4
  0
STYLE
  2
STANDARD
 70
0
 40
0
 41
1
 50
0
 71
0
 42
3.5
  3
txt
  4

  0
STYLE
  2
SIMPLEX
 70
0
 40
0
 41
1
 50
0
 71
0
 42
3.5
  3
simplex
  4

  0
STYLE
  2
COMPLEX
 70
0
 40
0
 41
1
 50
0
 71
0
 42
3.5
  3
complex
  4

  0
STYLE
  2
ITALIC
 70
0
 40
0
 41
1
 50
0
 71
0
 42
3.5
  3
italic
  4

  0
ENDTAB
  0
TABLE
  2
VIEW
 70
0
  0
ENDTAB
  0
ENDSEC
  0
SECTION
  2
BLOCKS
  0
ENDSEC
  0
SECTION
  2
ENTITIES
  0
LINE
  8
1
 62
7
 10
557.1280901203159
 20
522.0185644141322
 30
0
 11
551.5560121816741
 21
522.018564414132
 31
0
  0
LINE
  8
1
 62
7
 10
557.128090120316
 20
519.4185644141322
 30
0
 11
551.556012181674
 21
519.4185644141322
 31
0
  0
LINE
  8
1
 62
7
 10
579.983934243032
 20
519.4185644141322
 30
0
 11
585.556012181674
 21
519.4185644141322
 31
0
  0
LINE
  8
1
 62
7
 10
579.9839342430319
 20
522.0185644141322
 30
0
 11
585.5560121816741
 21
522.018564414132
 31
0
  0
LINE
  8
1
 62
7
 10
563.1124949023033
 20
525.0614049863831
 30
0
 11
557.2988722251841
 21
519.247782309264
 31
0
  0
LINE
  8
1
 62
7
 10
562.8670427217734
 20
525.141221925199
 30
0
 11
557.2988722251841
 21
519.5730514286099
 31
0
  0
LINE
  8
1
 62
7
 10
560.9937181225093
 20
515.5529364119388
 30
0
 11
557.128090120316
 21
519.4185644141322
 31
0
  0
LINE
  8
1
 62
7
 10
573.9995294610447
 20
516.3757238418813
 30
0
 11
579.8131521381638
 21
522.1893465190003
 31
0
  0
LINE
  8
1
 62
7
 10
576.1183062408386
 20
515.5529364119388
 30
0
 11
579.983934243032
 21
519.4185644141322
 31
0
  0
LINE
  8
1
 62
7
 10
576.1183062408386
 20
525.8841924163256
 30
0
 11
579.9839342430319
 21
522.0185644141322
 31
0
  0
LINE
  8
1
 62
7
 10
561.2858714511176
 20
525.7520816762216
 30
0
 11
557.3130143608079
 21
521.779224585912
 31
0
  0
LINE
  8
1
 62
7
 10
561.0906234898707
 20
525.8396764274495
 30
0
 11
557.3130143608079
 21
522.0620672983865
 31
0
  0
LINE
  8
1
 62
7
 10
560.9937181225093
 20
525.8841924163256
 30
0
 11
557.1280901203159
 21
522.0185644141322
 31
0
  0
LINE
  8
1
 62
7
 10
557.2988722251841
 20
519.5730514286099
 30
0
 11
557.2988722251841
 21
519.247782309264
 31
0
  0
LINE
  8
1
 62
7
 10
579.8131521381638
 20
521.8640773996544
 30
0
 11
574.2449816415748
 21
516.2959069030654
 31
0
  0
LINE
  8
1
 62
7
 10
579.8131521381638
 20
521.8640773996544
 30
0
 11
579.8131521381638
 21
522.1893465190003
 31
0
  0
LINE
  8
1
 62
7
 10
579.7990100025401
 20
519.6579042423524
 30
0
 11
575.8261529122306
 21
515.6850471520429
 31
0
  0
LINE
  8
1
 62
7
 10
557.3130143608079
 20
521.779224585912
 30
0
 11
557.3130143608079
 21
522.0620672983865
 31
0
  0
LINE
  8
1
 62
7
 10
579.7990100025401
 20
519.3750615298778
 30
0
 11
579.7990100025401
 21
519.6579042423524
 31
0
  0
LINE
  8
1
 62
7
 10
579.7990100025401
 20
519.3750615298778
 30
0
 11
576.0214008734772
 21
515.597452400815
 31
0
  0
LINE
  8
1
 62
7
 10
578.7029944917009
 20
520.7539197531916
 30
0
 11
579.7990100025401
 21
519.6579042423524
 31
0
  0
LINE
  8
1
 62
7
 10
557.3130143608079
 20
521.779224585912
 30
0
 11
558.409029871647
 21
520.6832090750728
 31
0
  0
LINE
  8
1
 62
7
 10
624.1579113026779
 20
509.4614244576424
 30
0
 11
636.8858333640359
 21
522.1893465190003
 31
0
  0
LINE
  8
1
 62
7
 10
627.0994755124142
 20
531.975704370622
 30
0
 11
614.3715534510562
 21
519.247782309264
 31
0
  0
LINE
  8
1
 62
7
 10
626.7742063930683
 20
531.975704370622
 30
0
 11
614.3715534510562
 21
519.5730514286099
 31
0
  0
LINE
  8
1
 62
7
 10
627.0994755124142
 20
531.975704370622
 30
0
 11
626.7742063930683
 21
531.975704370622
 31
0
  0
LINE
  8
1
 62
7
 10
625.6286934075461
 20
507.9906423527742
 30
0
 11
614.2007713461881
 21
519.4185644141322
 31
0
  0
LINE
  8
1
 62
7
 10
614.3715534510562
 20
519.5730514286099
 30
0
 11
614.3715534510562
 21
519.247782309264
 31
0
  0
LINE
  8
1
 62
7
 10
624.4831804220238
 20
509.4614244576424
 30
0
 11
624.1579113026779
 21
509.4614244576424
 31
0
  0
LINE
  8
1
 62
7
 10
625.6286934075459
 20
533.4464864754903
 30
0
 11
637.0566154689039
 21
522.0185644141322
 31
0
  0
LINE
  8
1
 62
7
 10
636.8858333640359
 20
521.8640773996544
 30
0
 11
624.4831804220238
 21
509.4614244576424
 31
0
  0
LINE
  8
1
 62
7
 10
636.8858333640359
 20
521.8640773996544
 30
0
 11
636.8858333640359
 21
522.1893465190003
 31
0
  0
LINE
  8
1
 62
7
 10
624.1286934075461
 20
509.4906423527742
 30
0
 11
624.1579113026779
 21
509.4614244576424
 31
0
  0
LINE
  8
1
 62
7
 10
627.1286934075459
 20
531.9464864754903
 30
0
 11
627.0994755124142
 21
531.975704370622
 31
0
  0
LINE
  8
1
 62
7
 10
624.5680332357663
 20
531.9615622349983
 30
0
 11
614.38569558668
 21
521.779224585912
 31
0
  0
LINE
  8
1
 62
7
 10
636.8716912284122
 20
519.6579042423524
 30
0
 11
626.6893535793258
 21
509.4755665932661
 31
0
  0
LINE
  8
1
 62
7
 10
614.38569558668
 20
521.779224585912
 30
0
 11
614.38569558668
 21
522.0620672983865
 31
0
  0
LINE
  8
1
 62
7
 10
624.2851905232917
 20
531.9615622349983
 30
0
 11
624.5680332357663
 21
531.9615622349983
 31
0
  0
LINE
  8
1
 62
7
 10
636.8716912284122
 20
519.3750615298778
 30
0
 11
636.8716912284122
 21
519.6579042423524
 31
0
  0
LINE
  8
1
 62
7
 10
626.6893535793258
 20
509.4755665932661
 30
0
 11
626.9721962918004
 21
509.4755665932661
 31
0
  0
LINE
  8
1
 62
7
 10
626.6893535793258
 20
509.4755665932661
 30
0
 11
625.5933380684867
 21
510.5715821041052
 31
0
  0
LINE
  8
1
 62
7
 10
636.8716912284122
 20
519.3750615298778
 30
0
 11
626.9721962918004
 21
509.4755665932661
 31
0
  0
LINE
  8
1
 62
7
 10
635.775675717573
 20
520.7539197531916
 30
0
 11
636.8716912284122
 21
519.6579042423524
 31
0
  0
LINE
  8
1
 62
7
 10
614.38569558668
 20
521.779224585912
 30
0
 11
615.4817110975191
 21
520.6832090750728
 31
0
  0
LINE
  8
1
 62
7
 10
624.2851905232917
 20
531.9615622349983
 30
0
 11
614.38569558668
 21
522.0620672983865
 31
0
  0
LINE
  8
1
 62
7
 10
625.6640487466054
 20
530.8655467241591
 30
0
 11
624.5680332357663
 21
531.9615622349983
 31
0
  0
LINE
  8
1
 62
7
 10
633.4286934075459
 20
553.6185644141323
 30
0
 11
645.6286934075459
 21
553.6185644141323
 31
0
  0
LINE
  8
1
 62
7
 10
633.4286934075459
 20
534.8185644141323
 30
0
 11
633.4286934075459
 21
553.6185644141323
 31
0
  0
LINE
  8
1
 62
7
 10
645.6286934075459
 20
525.0185644141789
 30
0
 11
645.6286934075459
 21
559.2185644141323
 31
0
  0
LINE
  8
1
 62
7
 10
645.6286934075459
 20
534.8185644141323
 30
0
 11
633.4286934075459
 21
534.8185644141323
 31
0
  0
LINE
  8
1
 62
7
 10
605.6286934075459
 20
549.8185644141323
 30
0
 11
633.4286934075459
 21
549.8185644141323
 31
0
  0
LINE
  8
1
 62
7
 10
605.6286934075459
 20
538.6185644141323
 30
0
 11
633.4286934075459
 21
538.6185644141323
 31
0
  0
LINE
  8
1
 62
3
  6
CENTER
 10
600.068693407546
 20
544.2185644141323
 30
0
 11
650.125700814588
 21
544.2185644141323
 31
0
  0
LINE
  8
1
 62
3
 10
605.6286934075459
 20
551.2185644141323
 30
0
 11
633.4286934075459
 21
551.2185644141323
 31
0
  0
LINE
  8
1
 62
7
 10
605.6286934075459
 20
525.0185644141789
 30
0
 11
605.6286934075459
 21
559.2185644141323
 31
0
  0
LINE
  8
1
 62
3
 10
605.6286934075459
 20
537.2185644141323
 30
0
 11
633.4286934075459
 21
537.2185644141323
 31
0
  0
LINE
  8
1
 62
7
 10
614.2007713461879
 20
522.0185644141322
 30
0
 11
608.6286934075459
 21
522.0185644141322
 31
0
  0
LINE
  8
1
 62
7
 10
625.6286934075459
 20
533.4464864754903
 30
0
 11
614.2007713461879
 21
522.0185644141322
 31
0
  0
LINE
  8
1
 62
7
 10
637.0566154689039
 20
522.0185644141322
 30
0
 11
642.6286934075459
 21
522.0185644141322
 31
0
  0
LINE
  8
1
 62
7
 10
605.6286934075459
 20
525.0185644141789
 30
0
 11
608.6286934075459
 21
522.0185644141322
 31
0
  0
LINE
  8
1
 62
7
 10
645.6286934075459
 20
525.0185644141789
 30
0
 11
642.6286934075459
 21
522.0185644141322
 31
0
  0
LINE
  8
1
 62
7
 10
645.6286934075459
 20
559.2185644141323
 30
0
 11
642.6286934075459
 21
562.2185644141323
 31
0
  0
LINE
  8
1
 62
7
 10
608.6286934075459
 20
562.2185644141323
 30
0
 11
605.6286934075459
 21
559.2185644141323
 31
0
  0
LINE
  8
1
 62
7
 10
608.6286934075459
 20
562.2185644141323
 30
0
 11
642.6286934075459
 21
562.2185644141323
 31
0
  0
LINE
  8
1
 62
7
 10
617.8286934075461
 20
487.8185644141322
 30
0
 11
605.6286934075461
 21
487.8185644141322
 31
0
  0
LINE
  8
1
 62
7
 10
617.8286934075461
 20
506.6185644141322
 30
0
 11
617.8286934075461
 21
487.8185644141322
 31
0
  0
LINE
  8
1
 62
7
 10
605.6286934075461
 20
516.4185644140856
 30
0
 11
605.6286934075461
 21
482.2185644141322
 31
0
  0
LINE
  8
1
 62
7
 10
605.6286934075461
 20
506.6185644141322
 30
0
 11
617.8286934075461
 21
506.6185644141322
 31
0
  0
LINE
  8
1
 62
7
 10
645.6286934075461
 20
491.6185644141322
 30
0
 11
617.8286934075461
 21
491.6185644141322
 31
0
  0
LINE
  8
1
 62
7
 10
645.6286934075461
 20
502.8185644141322
 30
0
 11
617.8286934075461
 21
502.8185644141322
 31
0
  0
LINE
  8
1
 62
3
  6
CENTER
 10
651.188693407546
 20
497.2185644141322
 30
0
 11
601.131686000504
 21
497.2185644141322
 31
0
  0
LINE
  8
1
 62
3
 10
645.6286934075461
 20
490.2185644141322
 30
0
 11
617.8286934075461
 21
490.2185644141322
 31
0
  0
LINE
  8
1
 62
7
 10
645.6286934075461
 20
516.4185644140856
 30
0
 11
645.6286934075461
 21
482.2185644141322
 31
0
  0
LINE
  8
1
 62
3
 10
645.6286934075461
 20
504.2185644141322
 30
0
 11
617.8286934075461
 21
504.2185644141322
 31
0
  0
LINE
  8
1
 62
3
  6
DASHDOT
 10
625.6286934075461
 20
566.339905683439
 30
0
 11
625.6286934075461
 21
474.650630747052
 31
0
  0
LINE
  8
1
 62
3
  6
DASHDOT
 10
609.4108610915641
 20
520.7185644141322
 30
0
 11
642.5083783764111
 21
520.7185644141322
 31
0
  0
LINE
  8
1
 62
7
 10
637.0566154689041
 20
519.4185644141322
 30
0
 11
642.6286934075461
 21
519.4185644141322
 31
0
  0
LINE
  8
1
 62
7
 10
625.6286934075461
 20
507.9906423527742
 30
0
 11
637.0566154689041
 21
519.4185644141322
 31
0
  0
LINE
  8
1
 62
7
 10
614.2007713461881
 20
519.4185644141322
 30
0
 11
608.6286934075461
 21
519.4185644141322
 31
0
  0
LINE
  8
1
 62
7
 10
645.6286934075461
 20
516.4185644140856
 30
0
 11
642.6286934075461
 21
519.4185644141322
 31
0
  0
LINE
  8
1
 62
7
 10
605.6286934075461
 20
516.4185644140856
 30
0
 11
608.6286934075461
 21
519.4185644141322
 31
0
  0
LINE
  8
1
 62
7
 10
605.6286934075461
 20
482.2185644141322
 30
0
 11
608.6286934075461
 21
479.2185644141322
 31
0
  0
LINE
  8
1
 62
7
 10
642.6286934075461
 20
479.2185644141322
 30
0
 11
645.6286934075461
 21
482.2185644141322
 31
0
  0
LINE
  8
1
 62
7
 10
642.6286934075461
 20
479.2185644141322
 30
0
 11
608.6286934075461
 21
479.2185644141322
 31
0
  0
LINE
  8
1
 62
7
 10
569.556012181674
 20
481.2463636585205
 30
0
 11
569.556012181674
 21
517.1907651697434
 31
0
  0
LINE
  8
1
 62
7
 10
567.556012181674
 20
481.2463636585205
 30
0
 11
567.556012181674
 21
517.1907651697434
 31
0
  0
LINE
  8
1
 62
7
 10
567.556012181674
 20
524.2463636585206
 30
0
 11
567.556012181674
 21
560.1907651697435
 31
0
  0
LINE
  8
1
 62
7
 10
569.556012181674
 20
524.2463636585206
 30
0
 11
569.556012181674
 21
560.1907651697435
 31
0
  0
LINE
  8
1
 62
7
 10
211.8498330608389
 20
517.2185644141318
 30
0
 11
211.8498330608389
 21
481.2185644141319
 31
0
  0
LINE
  8
1
 62
7
 10
215.3498330608389
 20
481.2185644141319
 30
0
 11
211.8498330608389
 21
481.2185644141319
 31
0
  0
LINE
  8
1
 62
7
 10
211.8498330608389
 20
481.2185644141319
 30
0
 11
210.3498330608389
 21
482.7185644141319
 31
0
  0
LINE
  8
1
 62
7
 10
210.3498330608389
 20
482.7185644141319
 30
0
 11
210.3498330608389
 21
515.7185644141318
 31
0
  0
LINE
  8
1
 62
7
 10
210.3498330608389
 20
515.7185644141318
 30
0
 11
211.8498330608389
 21
517.2185644141318
 31
0
  0
LINE
  8
1
 62
7
 10
211.8498330608389
 20
517.2185644141318
 30
0
 11
215.3498330608389
 21
517.2185644141318
 31
0
  0
LINE
  8
1
 62
7
 10
215.3498330608389
 20
517.2185644141318
 30
0
 11
215.3498330608389
 21
481.2185644141319
 31
0
  0
LINE
  8
1
 62
7
 10
215.3498330608389
 20
524.2185644141321
 30
0
 11
211.8498330608389
 21
524.2185644141321
 31
0
  0
LINE
  8
1
 62
7
 10
211.8498330608389
 20
524.2185644141321
 30
0
 11
210.3498330608389
 21
525.7185644141321
 31
0
  0
LINE
  8
1
 62
7
 10
210.3498330608389
 20
525.7185644141321
 30
0
 11
210.3498330608389
 21
558.7185644141321
 31
0
  0
LINE
  8
1
 62
7
 10
211.8498330608389
 20
560.2185644141321
 30
0
 11
211.8498330608389
 21
524.2185644141321
 31
0
  0
LINE
  8
1
 62
7
 10
210.3498330608389
 20
558.7185644141321
 30
0
 11
211.8498330608389
 21
560.2185644141321
 31
0
  0
LINE
  8
1
 62
7
 10
211.8498330608389
 20
560.2185644141321
 30
0
 11
215.3498330608389
 21
560.2185644141321
 31
0
  0
LINE
  8
1
 62
7
 10
518.8498330608391
 20
481.2185644141319
 30
0
 11
518.8498330608391
 21
517.2185644141318
 31
0
  0
LINE
  8
1
 62
7
 10
518.8498330608391
 20
481.2185644141319
 30
0
 11
515.3498330608391
 21
481.2185644141319
 31
0
  0
LINE
  8
1
 62
7
 10
520.3498330608391
 20
482.7185644141319
 30
0
 11
518.8498330608391
 21
481.2185644141319
 31
0
  0
LINE
  8
1
 62
7
 10
520.3498330608391
 20
515.7185644141318
 30
0
 11
520.3498330608391
 21
482.7185644141319
 31
0
  0
LINE
  8
1
 62
7
 10
518.8498330608391
 20
517.2185644141318
 30
0
 11
520.3498330608391
 21
515.7185644141318
 31
0
  0
LINE
  8
1
 62
7
 10
515.3498330608391
 20
517.2185644141318
 30
0
 11
518.8498330608391
 21
517.2185644141318
 31
0
  0
LINE
  8
1
 62
7
 10
518.8498330608391
 20
524.2185644141321
 30
0
 11
518.8498330608391
 21
560.2185644141321
 31
0
  0
LINE
  8
1
 62
7
 10
518.8498330608391
 20
524.2185644141321
 30
0
 11
515.3498330608391
 21
524.2185644141321
 31
0
  0
LINE
  8
1
 62
7
 10
520.3498330608391
 20
525.7185644141321
 30
0
 11
518.8498330608391
 21
524.2185644141321
 31
0
  0
LINE
  8
1
 62
7
 10
520.3498330608391
 20
558.7185644141321
 30
0
 11
520.3498330608391
 21
525.7185644141321
 31
0
  0
LINE
  8
1
 62
7
 10
518.8498330608391
 20
560.2185644141321
 30
0
 11
520.3498330608391
 21
558.7185644141321
 31
0
  0
LINE
  8
1
 62
7
 10
515.3498330608391
 20
560.2185644141321
 30
0
 11
518.8498330608391
 21
560.2185644141321
 31
0
  0
LINE
  8
1
 62
7
 10
588.556012181674
 20
516.4185644140856
 30
0
 11
585.556012181674
 21
519.4185644141322
 31
0
  0
LINE
  8
1
 62
7
 10
548.556012181674
 20
516.4185644140856
 30
0
 11
551.556012181674
 21
519.4185644141322
 31
0
  0
LINE
  8
1
 62
7
 10
548.556012181674
 20
482.2185644141322
 30
0
 11
551.556012181674
 21
479.2185644141322
 31
0
  0
LINE
  8
1
 62
7
 10
585.556012181674
 20
479.2185644141322
 30
0
 11
588.556012181674
 21
482.2185644141322
 31
0
  0
LINE
  8
1
 62
7
 10
548.556012181674
 20
482.2185644141322
 30
0
 11
548.556012181674
 21
516.4185644140856
 31
0
  0
LINE
  8
1
 62
7
 10
585.556012181674
 20
479.2185644141322
 30
0
 11
551.556012181674
 21
479.2185644141322
 31
0
  0
LINE
  8
1
 62
7
 10
588.556012181674
 20
482.2185644141322
 30
0
 11
588.556012181674
 21
516.4185644140856
 31
0
  0
LINE
  8
1
 62
7
 10
512.3498330608391
 20
519.418564414132
 30
0
 11
419.502647218356
 21
519.418564414132
 31
0
  0
LINE
  8
1
 62
7
 10
415.4409407708478
 20
519.418564414132
 30
0
 11
218.349833060839
 21
519.418564414132
 31
0
  0
LINE
  8
1
 62
7
 10
515.3498330608391
 20
481.7185644141319
 30
0
 11
512.3498330608391
 21
479.2185644141319
 31
0
  0
LINE
  8
1
 62
7
 10
215.349833060839
 20
516.5185644141785
 30
0
 11
218.349833060839
 21
519.418564414132
 31
0
  0
LINE
  8
1
 62
7
 10
215.349833060839
 20
482.2185644141319
 30
0
 11
218.349833060839
 21
479.2185644141319
 31
0
  0
LINE
  8
1
 62
3
  6
CENTER
 10
450.3098330608309
 20
497.2185644141319
 30
0
 11
480.3898330608472
 21
497.2185644141319
 31
0
  0
LINE
  8
1
 62
3
  6
CENTER
 10
465.349833060839
 20
512.2585644141692
 30
0
 11
465.349833060839
 21
482.1785644140946
 31
0
  0
LINE
  8
1
 62
3
  6
CENTER
 10
350.3098330608309
 20
497.2185644141319
 30
0
 11
380.3898330608472
 21
497.2185644141319
 31
0
  0
LINE
  8
1
 62
3
  6
CENTER
 10
365.349833060839
 20
512.2585644141692
 30
0
 11
365.349833060839
 21
482.1785644140946
 31
0
  0
LINE
  8
1
 62
3
  6
CENTER
 10
265.349833060839
 20
512.2585644141692
 30
0
 11
265.349833060839
 21
482.1785644140946
 31
0
  0
LINE
  8
1
 62
3
  6
CENTER
 10
250.3098330608309
 20
497.2185644141319
 30
0
 11
280.3898330608472
 21
497.2185644141319
 31
0
  0
LINE
  8
1
 62
7
 10
512.3498330608391
 20
479.2185644141319
 30
0
 11
412.3209232035998
 21
479.2185644141319
 31
0
  0
LINE
  8
1
 62
7
 10
515.3498330608391
 20
481.2185644141319
 30
0
 11
515.3498330608391
 21
517.2185644141318
 31
0
  0
LINE
  8
1
 62
7
 10
408.2592167560915
 20
479.2185644141319
 30
0
 11
218.349833060839
 21
479.2185644141319
 31
0
  0
LINE
  8
1
 62
7
 10
220.7374735940803
 20
479.2185644141319
 30
0
 11
220.7374735940803
 21
482.2185644141319
 31
0
  0
LINE
  8
1
 62
7
 10
220.7374735940803
 20
519.418564414132
 30
0
 11
220.7374735940803
 21
516.4185644140854
 31
0
  0
LINE
  8
1
 62
7
 10
510.1701475022101
 20
479.2185644141319
 30
0
 11
510.1701475022101
 21
482.2185644141319
 31
0
  0
LINE
  8
1
 62
7
 10
510.1701475022101
 20
519.418564414132
 30
0
 11
510.1701475022101
 21
516.4185644140854
 31
0
  0
LINE
  8
1
 62
7
 10
408.7951663094315
 20
482.2185644141319
 30
0
 11
220.7374735940803
 21
482.2185644141319
 31
0
  0
LINE
  8
1
 62
7
 10
510.1701475022101
 20
482.2185644141319
 30
0
 11
412.8568727569398
 21
482.2185644141319
 31
0
  0
LINE
  8
1
 62
7
 10
510.1701475022101
 20
516.4185644140854
 30
0
 11
418.9666976650075
 21
516.4185644140854
 31
0
  0
LINE
  8
1
 62
7
 10
515.3498330608391
 20
516.5185644141785
 30
0
 11
512.3498330608391
 21
519.418564414132
 31
0
  0
LINE
  8
1
 62
7
 10
414.9049912174995
 20
516.4185644140854
 30
0
 11
220.7374735940803
 21
516.4185644140854
 31
0
  0
LINE
  8
1
 62
4
  6
DASHDOT
 10
206.232859714696
 20
520.7185644141321
 30
0
 11
520.3498330608391
 21
520.7185644141321
 31
0
  0
LINE
  8
1
 62
7
 10
419.9671368312507
 20
522.018564414132
 30
0
 11
512.3498330608391
 21
522.018564414132
 31
0
  0
LINE
  8
1
 62
7
 10
218.349833060839
 20
522.018564414132
 30
0
 11
415.9054303837425
 21
522.018564414132
 31
0
  0
LINE
  8
1
 62
7
 10
548.5560121816741
 20
525.0185644141786
 30
0
 11
551.5560121816741
 21
522.018564414132
 31
0
  0
LINE
  8
1
 62
7
 10
588.5560121816741
 20
525.0185644141786
 30
0
 11
585.5560121816741
 21
522.018564414132
 31
0
  0
LINE
  8
1
 62
4
  6
DASHDOT
 10
548.556012181674
 20
520.7185644141321
 30
0
 11
588.556012181674
 21
520.7185644141321
 31
0
  0
LINE
  8
1
 62
6
  6
DIVIDE
 10
428.0906927063932
 20
567.4905075728682
 30
0
 11
411.3104541209065
 21
473.5624215380196
 31
0
  0
LINE
  8
1
 62
6
  6
DIVIDE
 10
424.0675743778513
 20
567.7065061797846
 30
0
 11
407.2693433874285
 21
473.6777069071474
 31
0
  0
LINE
  8
1
 62
7
 10
588.5560121816741
 20
559.2185644141321
 30
0
 11
585.5560121816741
 21
562.2185644141321
 31
0
  0
LINE
  8
1
 62
7
 10
551.5560121816741
 20
562.2185644141321
 30
0
 11
548.5560121816741
 21
559.2185644141321
 31
0
  0
LINE
  8
1
 62
7
 10
512.3498330608391
 20
562.2185644141321
 30
0
 11
515.3498330608391
 21
559.7185644141321
 31
0
  0
LINE
  8
1
 62
7
 10
218.349833060839
 20
522.018564414132
 30
0
 11
215.349833060839
 21
524.9185644140855
 31
0
  0
LINE
  8
1
 62
7
 10
218.349833060839
 20
562.2185644141321
 30
0
 11
215.349833060839
 21
559.2185644141321
 31
0
  0
LINE
  8
1
 62
7
 10
588.5560121816741
 20
559.2185644141321
 30
0
 11
588.5560121816741
 21
525.0185644141786
 31
0
  0
LINE
  8
1
 62
7
 10
551.5560121816741
 20
562.2185644141321
 30
0
 11
585.5560121816741
 21
562.2185644141321
 31
0
  0
LINE
  8
1
 62
7
 10
548.5560121816741
 20
559.2185644141321
 30
0
 11
548.5560121816741
 21
525.0185644141786
 31
0
  0
LINE
  8
1
 62
3
  6
CENTER
 10
480.3898330608472
 20
544.2185644141321
 30
0
 11
450.3098330608309
 21
544.2185644141321
 31
0
  0
LINE
  8
1
 62
3
  6
CENTER
 10
465.349833060839
 20
559.4585644141228
 30
0
 11
465.349833060839
 21
529.3785644140482
 31
0
  0
LINE
  8
1
 62
3
  6
CENTER
 10
380.3898330608472
 20
544.2185644141321
 30
0
 11
350.3098330608309
 21
544.2185644141321
 31
0
  0
LINE
  8
1
 62
3
  6
CENTER
 10
365.349833060839
 20
559.2585644141693
 30
0
 11
365.349833060839
 21
529.1785644140948
 31
0
  0
LINE
  8
1
 62
3
  6
CENTER
 10
265.349833060839
 20
559.2585644141693
 30
0
 11
265.349833060839
 21
529.1785644140948
 31
0
  0
LINE
  8
1
 62
3
  6
CENTER
 10
280.3898330608472
 20
544.2185644141321
 30
0
 11
250.3098330608309
 21
544.2185644141321
 31
0
  0
LINE
  8
1
 62
7
 10
427.2381857715636
 20
562.2185644141321
 30
0
 11
512.3498330608391
 21
562.2185644141321
 31
0
  0
LINE
  8
1
 62
7
 10
515.3498330608391
 20
560.2185644141321
 30
0
 11
515.3498330608391
 21
524.2185644141321
 31
0
  0
LINE
  8
1
 62
7
 10
215.3498330608389
 20
524.2185644141321
 30
0
 11
215.3498330608389
 21
560.2185644141321
 31
0
  0
LINE
  8
1
 62
7
 10
218.349833060839
 20
562.2185644141321
 30
0
 11
423.1764793240554
 21
562.2185644141321
 31
0
  0
LINE
  8
1
 62
7
 10
220.7374735940803
 20
559.2185644141321
 30
0
 11
220.7374735940803
 21
562.2185644141321
 31
0
  0
LINE
  8
1
 62
7
 10
220.7374735940803
 20
525.0185644141786
 30
0
 11
220.7374735940803
 21
522.018564414132
 31
0
  0
LINE
  8
1
 62
7
 10
510.1701475022101
 20
559.2185644141321
 30
0
 11
510.1701475022101
 21
562.2185644141321
 31
0
  0
LINE
  8
1
 62
7
 10
510.1701475022101
 20
525.0185644141786
 30
0
 11
510.1701475022101
 21
522.018564414132
 31
0
  0
LINE
  8
1
 62
7
 10
220.7374735940803
 20
559.2185644141321
 30
0
 11
422.4862789609442
 21
559.2185644141321
 31
0
  0
LINE
  8
1
 62
7
 10
426.6071888676352
 20
559.2185644141321
 30
0
 11
510.1701475022101
 21
559.2185644141321
 31
0
  0
LINE
  8
1
 62
7
 10
420.503086384599
 20
525.0185644141786
 30
0
 11
510.1701475022101
 21
525.0185644141786
 31
0
  0
LINE
  8
1
 62
7
 10
512.3498330608391
 20
522.018564414132
 30
0
 11
515.3498330608391
 21
524.9185644140855
 31
0
  0
LINE
  8
1
 62
7
 10
220.7374735940803
 20
525.0185644141786
 30
0
 11
416.4413799370909
 21
525.0185644141786
 31
0
  0
ARC
  8
1
 62
7
 10
568.556012181674
 20
499.2185644141322
 30
0
 40
16.49999999999974
 50
93.47460079307227
 51
266.5253992069278
  0
ARC
  8
1
 62
7
 10
568.556012181674
 20
499.2185644141322
 30
0
 40
16.5000000000002
 50
273.4746007930722
 51
86.52539920692773
  0
ARC
  8
1
 62
7
 10
568.556012181674
 20
542.2185644141321
 30
0
 40
16.49999999999997
 50
93.47460079307221
 51
266.5253992069278
  0
ARC
  8
1
 62
7
 10
568.556012181674
 20
542.2185644141321
 30
0
 40
16.49999999999997
 50
273.4746007930722
 51
86.52539920692779
  0
ARC
  8
1
 62
7
 10
266.1464823371581
 20
499.3185644139901
 30
0
 40
48.52203700415074
 50
159.3647672027733
 51
200.6352327969647
  0
ARC
  8
1
 62
7
 10
464.5494703028298
 20
499.3185644139901
 30
0
 40
48.72018255430917
 50
339.452492959805
 51
20.54750704045613
  0
ARC
  8
1
 62
7
 10
266.1464823371581
 20
542.1185644142738
 30
0
 40
48.5220370040672
 50
159.3647672030352
 51
200.6352327972266
  0
ARC
  8
1
 62
7
 10
464.5494703028298
 20
542.1185644142738
 30
0
 40
48.72018255439235
 50
339.452492959544
 51
20.54750704019511
  0
CIRCLE
  8
1
 62
7
 10
568.556012181674
 20
499.2185644141322
 30
0
 40
18.00000000000022
  0
CIRCLE
  8
1
 62
7
 10
568.556012181674
 20
542.2185644141321
 30
0
 40
18
  0
CIRCLE
  8
1
 62
7
 10
465.349833060839
 20
497.2185644141319
 30
0
 40
5.600000000005935
  0
CIRCLE
  8
1
 62
3
 10
465.349833060839
 20
497.2185644141319
 30
0
 40
7
  0
CIRCLE
  8
1
 62
7
 10
465.349833060839
 20
497.2185644141319
 30
0
 40
9.399999999994236
  0
CIRCLE
  8
1
 62
7
 10
365.349833060839
 20
497.2185644141319
 30
0
 40
5.600000000005935
  0
CIRCLE
  8
1
 62
3
 10
365.349833060839
 20
497.2185644141319
 30
0
 40
7
  0
CIRCLE
  8
1
 62
7
 10
365.349833060839
 20
497.2185644141319
 30
0
 40
9.399999999994236
  0
CIRCLE
  8
1
 62
7
 10
265.349833060839
 20
497.2185644141319
 30
0
 40
9.399999999994236
  0
CIRCLE
  8
1
 62
3
 10
265.349833060839
 20
497.2185644141319
 30
0
 40
7
  0
CIRCLE
  8
1
 62
7
 10
265.349833060839
 20
497.2185644141319
 30
0
 40
5.600000000005935
  0
CIRCLE
  8
1
 62
7
 10
465.349833060839
 20
544.2185644141321
 30
0
 40
5.600000000005935
  0
CIRCLE
  8
1
 62
3
 10
465.349833060839
 20
544.2185644141321
 30
0
 40
7
  0
CIRCLE
  8
1
 62
7
  6
DASHED
 10
465.349833060839
 20
544.2185644141321
 30
0
 40
9.399999999994236
  0
CIRCLE
  8
1
 62
7
 10
365.349833060839
 20
544.2185644141321
 30
0
 40
5.600000000005935
  0
CIRCLE
  8
1
 62
3
 10
365.349833060839
 20
544.2185644141321
 30
0
 40
7
  0
CIRCLE
  8
1
 62
7
  6
DASHED
 10
365.349833060839
 20
544.2185644141321
 30
0
 40
9.399999999994236
  0
CIRCLE
  8
1
 62
7
  6
DASHED
 10
265.349833060839
 20
544.2185644141321
 30
0
 40
9.399999999994236
  0
CIRCLE
  8
1
 62
3
 10
265.349833060839
 20
544.2185644141321
 30
0
 40
7
  0
CIRCLE
  8
1
 62
7
 10
265.349833060839
 20
544.2185644141321
 30
0
 40
5.600000000005935
  0
TEXT
  8
1
 62
2
 10
545.525604328973
 20
419.797496064734
 30
0
 40
6
  1
UNION TOOL CO.
 41
0.7200000000000002
  7
COMPLEX
  0
TEXT
  8
1
 62
2
 10
214.706080409098
 20
601.621967226802
 30
0
 40
6
  1
MODEL : G18
 41
0.7200000000000002
  7
COMPLEX
  0
ENDSEC
  0
EOF
